Your One-Stop Source For
Music Lyrics
Bass and Guitar Tabs
and More...
Music Lyrics Bass and Guitar Tabs

 

The Tabs Are Below

Learn To Read Tab
Chords Handbook
Corrections & Additions
Get Official Tab
Barenaked Ladies tabs @ 911Tabs

 BARENAKED LADIES

ANOTHER POSTCARD

TABBED BY:ajhthewagon

 

Intro

G -------------------------------------------|

D -------------------------------------------|

A --4---4-0---------2-3-4----4-0-------------|

E ------------2--------------------2---------|

 

Verse1

G ------------------------------------------------|

D ------------------------------------------------|

A ------------------------------------------------|

E -0/9--0/9\-0-0-4-0---0-0-4-0---0-0-4-0---0-0-4-0|

 

Chorus

G -------------------------------------------|

D -------------------------------------------|

A -------------------------------------------|

E -0-0-4-0--5-5----5h7-7--7h5-5--------------|

 

G -------------------------------------------|

D -------------------------------------------|

A -------------------------------------------|

E -0-0-4-0--5-5----5h7-7--7h5-5--------------|

 

G -------------------------------------------|

D -------------------------------------------|

A -------------------------------------------|

E -0-0-4-0--5-5----5h7-7--7h5-5--------------|

 

G -------------------------------------------|

D -------------------------------------------|

A -------------------------------------------|

E -0-0-4-0--5-5----5h7-7--7h5-5--------------|

 

Verse2

G ------------------------------------------------|

D ------------------------------------------------|

A ------------------------------------------------|

E -4\0---9-9---9-11-11---11-9-9---4-0-4-7---------|

 

G ------------------------------------------------|

D ------------------------------------------------|

A ------------------------------------------------|

E -9-9---9-11-11---11-9-9-------------------------|

 

G ------------------------------------------------|

D ------------------------------------------------|

A ------------------------------------------------|

E -0-0-4-0---0-0-4-0---0-0-4-0---0-0-4-0----------|

 

Chorus

G -------------------------------------------|

D -------------------------------------------|

A -------------------------------------------|

E -0-0-4-0--5-5----5h7-7--7h5-5--------------|

 

G -------------------------------------------|

D -------------------------------------------|

A -------------------------------------------|

E -0-0-4-0--5-5----5h7-7--7h5-5--------------|

 

G -------------------------------------------|

D -------------------------------------------|

A -------------------------------------------|

E -0-0-4-0--5-5----5h7-7--7h5-5--------------|

 

G -------------------------------------------|

D -------------------------------------------|

A -------------------------------------------|

E -0-0-4-0--5-5----5h7-7--7h5-5--------------|

 

Verse3

G ------------------------------------------------|

D ------------------------------------------------|

A ------------------------------------------------|

E -4\0---9-9---9-11-11---11-9-9---4-0-4-7---------|

 

G ------------------------------------------------|

D ------------------------------------------------|

A ------------------------------------------------|

E -9-9---9-11-11---11-9-9-------------------------|

 

G ------------------------------------------------|

D ------------------------------------------------|

A ------------------------------------------------|

E -0------0------0------0-------------------------|

 

After short break

G ------------------------------------------------|

D ------------------------------------------------|

A -4--4-0-------2-3-4---4-0-------2-3-4---4-0-----|

E ----------2-----------------2-----------------2-|

 

G -------------------------------------------|

D -------------------------------------------|

A -------------------------------------------|

E -0-0-4-0--5-5----5h7-7--7h5-5--------------|

 

G -------------------------------------------|

D -------------------------------------------|

A -------------------------------------------|

E -0-0-4-0--5-5----5h7-7--7h5-5--------------|

 

G -------------------------------------------|

D -------------------------------------------|

A -------------------------------------------|

E -0-0-4-0--5-5----5h7-7--7h5-5--------------|

 

G -------------------------------------------|

D -------------------------------------------|

A -------------------------------------------|

E -0-0-4-0--5-5----5h7-7--7h5-5--------------|

 

G -------------------------------------------|

D -------------------------------------------|

A -------------------------------------------|

E -0-0-4-0--5-5----5h7-7--7h5-5--------------|

 

G -------------------------------------------|

D -------------------------------------------|

A -------------------------------------------|

E -0-0-4-0--5-5----5h7-7--7h5-5--------------|

 

G -------------------------------------------|

D -------------------------------------------|

A -------------------------------------------|

E -0-0-4-0--5-5----5h7-7--7h5-5--------------|

 

G -------------------------------------------|

D -------------------------------------------|

A -------------------------------------------|

E -0-0-4-0--5-5----5h7-7--7h5-5--------------|

 

 

Last note:

G-----|

D-----|

A-----|

E--0--|

 

 

Return to my to my BNL bass tabs page

The Tablature is Copyright its respective owners.

Sign Up For My Newsletter
Subscribe | Unsubscribe

Site Map | Disclaimer | Privacy Policy | Media Kit | Submissions/Corrections

Website © 2000-2014 mattsmusicpage.com. All rights reserved.

Legal & DMCA: Matt's Music Page has been providing lyrics and tabs in a legal way, paying royalties each year to a few organizations. Then, all lyrics and tabs were removed from the site. Now, there's a new owner to the site, which purchased it August 26, 2014, and he is in negotiation to obtain licensing from BMI at the moment. If you have a specific DMCA request -- please do not hesitate to contact me via the contact button on top. I will do my very best to keep this site fully legal.

Get our toolbar!

 

VINTAGE SORRENTO MUSIC JEWELRY BOX
$45.0
VINTAGE SORRENTO MUSIC JEWELRY BOX picture


VINTAGE LACQUERED MUSIC BOX JAPAN
$25.99
VINTAGE LACQUERED MUSIC BOX JAPAN picture


Vintage Kehlsteinhaus Bavaria Germany Colorscope Cow Bell View Master Music Box
$8.99
Vintage Kehlsteinhaus Bavaria Germany Colorscope Cow Bell View Master Music Box picture


VINTAGE SCHMIDT Signed Collectible Musical Turning Clown
$9.99
VINTAGE  SCHMIDT Signed Collectible Musical Turning Clown picture


Vintage - Linen - Postcard - Stage - Radio City Music Hall - New York City
$3.75
Vintage - Linen - Postcard - Stage - Radio City Music Hall - New York City   picture