Your One-Stop Source For
Music Lyrics
Bass and Guitar Tabs
and More...
Music Lyrics Bass and Guitar Tabs

 

The Tabs Are Below

Learn To Read Tab
Chords Handbook
Corrections & Additions
Get Official Tab
Bad Religion tabs @ 911Tabs

You - Bad Religion

-------------------------------------------------------------------------------

 

By:Russ RAWjackass@aol.com

 

INTRO:

 

e|-----------------------------------------------------|

B|-----------------------------------------------------|

G|---------------------------------------66666/7-------|

D|---------------------------------------77777/8-------|

A|--777/88/7-777/88/7--777/88/7-777/88/7-77777/8-------|

E|--555/66/5-555/66/5--555/66/5-555/66/5-55555/6-------|

 

VERSE: X2

 

e|-------------------------------------------------------------------------|

B|-------------------------------------------------------------------------|

G|-------------------------------------------------------------------------|

D|----------101010101010-------------------------------101010101010--------|

A|---777777--8-8-8-8-8-8--101010101010--555555--777777--8-8-8-8-8-8--------|

E|---555555----------------8-8-8-8-8-8--333333--555555---------------------|

 

e|-------------------------------------------------------------------------|

B|-------------------------------------------------------------------------|

G|-------------------------------------------------------------------------|

D|----------------7777/99--------------------------------------------------|

A|--101010101010--5555/77--------------------------------------------------|

E|---8-8-8-8-8-8-----------------------------------------------------------|

 

PRECHORUS:

 

e|------------------------------------------|

B|-101010101010-999999-10101010-99/10/12/9--|

G|-101010101010-999999-10101010-99/10/12/9--|

D|-101010101010-999999-10101010-99/10/12/9--|

A|--8-8-8-8-8-8-777777--8-8-8-8-77/-8/10/7--|

E|------------------------------------------|

 

CHORUS:

 

e|------------------------------------------------------------------|

B|------------------------------99----------------------------------|

G|------------------------------99----------------------------------|

D|--22---------222-2-22-----555-99--22------------22----------------|

A|--00-333-555-000-0-00-333-333-77--00-333-555555-00-333-22222------|

E|-----111-333----------111------------111-333333----111-00000------|

 

INTRO:VERSE:PRECHORUS:CHORUS

 

OUTRO:

 

guitar1

e|------------------------------------------------------------------------5--|

B|-----------------------------------------------------------------------5---|

G|----------------------------------------------------------------------6----|

D|--22---------55--22---------5-4--22---------55--22-------------------7-----|

A|--00-333-555-33--00-333-555-3-2--00-333-555-33--00-333-2--2-3/5/3/5/7------|

E|-----111-333--------111-333---------111-333--------111-0--0-1/3/1/3/5------|

 

guitar2

e|--55~-----------------------------------|

B|--55~-----------------------------------|

G|--77~~~(bend-&-sustain)-----------------|

D|----------------------------------------|

A|----------------------------------------|

E|----------------------------------------|

 

 

Return to my Bad Religion tabs page

The Tablature is Copyright its respective owners.

Sign Up For My Newsletter
Subscribe | Unsubscribe

Site Map | Disclaimer | Privacy Policy | Media Kit | Submissions/Corrections

Website © 2000-2014 mattsmusicpage.com. All rights reserved.

Legal & DMCA: Matt's Music Page has been providing lyrics and tabs in a legal way, paying royalties each year to a few organizations. Then, all lyrics and tabs were removed from the site. Now, there's a new owner to the site, which purchased it August 26, 2014, and he is in negotiation to obtain licensing from BMI at the moment. If you have a specific DMCA request -- please do not hesitate to contact me via the contact button on top. I will do my very best to keep this site fully legal.

Get our toolbar!