Your One-Stop Source For
Music Lyrics
Bass and Guitar Tabs
and More...
>Music Lyrics Bass and Guitar Tabs

 

The Tabs Are Below

Learn To Read Tab
Chords Handbook
Corrections & Additions
Get Official Tab
Bad Religion tabs @ 911Tabs

White Trash (2nd Generation)

Flats

flatline@stic.net

 

Intro:

 

---------------------------------------------------------------

---------------------------------------------------------------

---------------------------------------------------------------

------11//9--7--9----------------------------------------------

-9-9--11//9--7--9----------------------------------------------

-9-9--9-//7--5--7--play 2 times---drums and bass enter play 2 more times

-7-7-----------------------------------------------------------

 

 

VERSE:

---------------------------------------------------------------

---------------------------------------------------------------

---------------------------------------------------------------

-------11\\9-------------------11\\9----7--9-------------------

-9-9---11\\9---7/9\7/9---9-9---11\\9----7--9-------------------

-9-9---9-\\7---7/9\7/9---9-9---9-\\7----5--7-------------------

-7-7-----------5/7\5/7---7-7-----------------------------------

Wasted Children Fixed blank eyes

blood and sweat we socialize

broken homes from which they come

beer-stained dad compliant mom

 

 

B A D

Fear and love, much despised, replaced by comfortable lies.

B A

Teenage classic, more cliche, one step further on the edge of decay.

B A

White trash, 2nd generation, white trash, 2nd generation,

B A B

White trash, 2nd generation, don your crown and cleanse the nation.

 

<play intro thing 2 times>

 

Are you ready to fight for your morality? Right wing allies, white supremacy.

Pretty fascist on the tube draped in red and white and blue

White trash, 2nd generation, stupid foibles, indignation

Offspring of suburban fright, pearl-white creatures of the night

 

White trash, 2nd generation, white trash, 2nd generation,

White trash, 2nd generation, don your crown and cleanse the nation.

 

<SOLO> or at least my version

----------=--------------------------------------------

-------------------------------------------------------

-------------------------------------------------------

7-7-9p7-7--repeat-2 more times, then the intro thing 2 times

7-7-7---9----------------------------------------------

-------------------------------------------------------

-------------------------------------------------------

 

Stiff blue collar, coat and tie, brand new breeds side by side.

Christian ethic, right extremes, shoved down our throat as the American Dream.

White trash, 2nd generation, stupid foibles, indignation

Offspring of suburban fright, pearl-white creatures of the night

 

White trash, 2nd generation, white trash, 2nd generation,

White trash, 2nd generation, don your crown and cleanse the nation.

 

(SOLO AGAIN)

 

White trash, 2nd generation, white trash, 2nd generation,

White trash, 2nd generation, don your crown and cleanse the nation.

 

 

Return to my Bad Religion tabs page

The Tablature is Copyright its respective owners.

Sign Up For My Newsletter
Subscribe | Unsubscribe

Site Map | Disclaimer | Privacy Policy | Media Kit | Submissions/Corrections

Website © 2000-2014 mattsmusicpage.com. All rights reserved.

Legal & DMCA: Matt's Music Page has been providing lyrics and tabs in a legal way, paying royalties each year to a few organizations. Then, all lyrics and tabs were removed from the site. Now, there's a new owner to the site, which purchased it August 26, 2014, and he is in negotiation to obtain licensing from BMI at the moment. If you have a specific DMCA request -- please do not hesitate to contact me via the contact button on top. I will do my very best to keep this site fully legal.

Get our toolbar!

 

Hard Rock Cafe Las Vegas Plying Cards Guitar Travel Souvenir Pin
$5.99
Hard Rock Cafe Las Vegas Plying Cards Guitar Travel Souvenir Pin picture


Framed Washburn 1982 Moody Blues John Lodge Festival Series guitar print ad
$11.99
Framed Washburn 1982 Moody Blues John Lodge Festival Series guitar print ad picture


Framed Howard Roberts Guitar Seminar vintage print ad
$11.99
Framed Howard Roberts Guitar Seminar vintage  print ad picture


Framed Westbury 1979 Track IV bass Custom & Baroque guitar print ad
$11.99
Framed Westbury 1979 Track IV bass Custom & Baroque guitar print ad picture


Framed Washburn 1980 Harvey Mandel Wing Series Falcon guitar print ad
$11.99
Framed Washburn 1980 Harvey Mandel Wing Series Falcon guitar print ad picture