Your One-Stop Source For
Music Lyrics
Bass and Guitar Tabs
and More...
>Music Lyrics Bass and Guitar Tabs

 

The Tabs Are Below

Learn To Read Tab
Chords Handbook
Corrections & Additions
Get Official Tab
Bad Religion tabs @ 911Tabs

Time and Disregard - Bad Religion

-------------------------------------------------------------------------------

 

Tabbed 11-14-01 by Justin Karinowski

If someone figures the thingy (you'll see), email me chaos356@hotmail.com

 

Intro, First, and Last verses

D A C G

E-------2--------------------------------------------3-------

B----------3-----------2--------------1-----------------0----

G----2--------2-----------2--------------0-----------------0-

D-0-----------------2--------2-----2--------2----------------

A----------------0--------------3-----------------2----------

E----------------------------------------------3-------------

D A C G

E----2----------------------0--0--0--0--------1--------------

B----3----------------------1--1--1--1-----0--0--0-----------

G----2--------0--2--0-------0--0--0--0-----0--0--0-----------

D-0--0--0--2-----------2p0--2--2--2--2--0--0-----0-----------

A---------------------------3--3--3--3--2--------------------

E---------------------------------------3--------------------

 

D A

from the bird and the deer who live on the same

C G

to the condominiums that litter the plain

D A C G, D, A, C, G

it took time... time and disregard

D A

from the green and the trees that shot high in the air

C G

to the high-business market-men who take all that's there

D A C G

it took time... time and disregard

 

||: D, A, C, G :||4x

 

||: Em, A :|| 4x

Em A

one more acre, another tree

Em A

"it's all untamed, of course it's free"

D C G

one more acre, it seems no one cares

D C G

"another great chance to put a building there"

 

||: D, C, G :||4x

||: Em, D :||4x

 

D, Some thingy, D, Another thingy, D, E, D, E

 

Emaj7 Amaj7

I used to roam, wherever I would

Emaj7 Amaj7

I'd see my friends and I'd eat what I could

D E

we did live together in our borderless state

D E

survival our instinct, nature our fate

Emaj7 Amaj7

today I see borders and my friends disappear

Emaj7 Amaj7

man chooses my fate thus I live in fear

D

tomorrow the trucks come

E

I've nowhere to run

D E

my home is destroyed so they can have fun

 

D, E, D, E

 

Barred

||: G, C, D :||4x

||: C, D :||3x

 

D A

from the wild natural wonderland from which we all came

C G

to the cement and metal that lost all the game

D A C G

it took time... time and disregard............

 

||: D, A, C, G: ||15x

 

Emaj7 Amaj7

E----0--------------

A----7------0-------

D----6------7-------

G----4------6-------

B----4------5-------

E----4------4-------

 

 

 

Return to my Bad Religion tabs page

The Tablature is Copyright its respective owners.

Sign Up For My Newsletter
Subscribe | Unsubscribe

Site Map | Disclaimer | Privacy Policy | Media Kit | Submissions/Corrections

Website © 2000-2014 mattsmusicpage.com. All rights reserved.

Legal & DMCA: Matt's Music Page has been providing lyrics and tabs in a legal way, paying royalties each year to a few organizations. Then, all lyrics and tabs were removed from the site. Now, there's a new owner to the site, which purchased it August 26, 2014, and he is in negotiation to obtain licensing from BMI at the moment. If you have a specific DMCA request -- please do not hesitate to contact me via the contact button on top. I will do my very best to keep this site fully legal.

Get our toolbar!

 

Hello Kitty Conductor with Drums Decoupage Ball Christmas Ornament Decoration
$6.98
Hello Kitty Conductor with Drums Decoupage Ball Christmas Ornament Decoration picture


SCHWINN DRUM BRAKE ORIGINAL CLEVIS BRAKE PARTS FOR SCHWINN DRUM BRAKE
$39.99
SCHWINN DRUM BRAKE ORIGINAL CLEVIS BRAKE PARTS FOR SCHWINN DRUM BRAKE picture


VINTAGE SCHWINN DRUM BRAKE HANDLE ORIGINAL SCRIPT SCHWINN BRAKE HANDLE WORN LOT
$89.99
VINTAGE SCHWINN DRUM BRAKE HANDLE ORIGINAL SCRIPT SCHWINN BRAKE HANDLE WORN LOT picture


Nutcracker (Shhelkunchik ) with a Drum Wooden Musical Figurine
$30.99
Nutcracker (Shhelkunchik ) with a Drum Wooden Musical Figurine picture


Romanian Military Canvas Drum Pouch
$20.0
Romanian Military Canvas Drum Pouch picture