Your One-Stop Source For
Music Lyrics
Bass and Guitar Tabs
and More...
Music Lyrics Bass and Guitar Tabs

 

The Bad Religion Bass Tabs Are Below

Learn To Read Tab
Chords Handbook
Corrections & Additions
Get Official Tab
Bad Religion tabs @ 911Tabs

the Quickening

Tabbed by: Justin Le Tourneau

Email: duffdrinkinhomer@yahoo.com

Best viewed in: Notepad, Courier New size 9

 

Bass tab.

 

You should be able to figure out the order of everything........

 

Opening:

G||---------------------|---------------------|---------------------------|

D||---------------------|---------------------|---------------------------|

A||--------3--3--3------|--3--3--3----2--2--2-|---------------------------|

E||---------------------|---------------------|--0--0--0--0-0--0-0--0--0--|

|---------------------------|---------------------------|

|---------------------------|---------------------------|

|---------------------------|--0--0--0--0-0--0--0-0--0--|

|--3--3--3--3-3--3-3--3--3--|---------------------------|

|--------------------------|---------------------------|

|--------------------------|---------------------------|

|--3--3--3--3--2--2--2--2--|---------------------------|

|--------------------------|--0--0--0--0-0--0-0--0--0--|

|---------------------------|---------------------------|

|---------------------------|---------------------------|

|---------------------------|--0--0--0--0-0--0--0-0--0--|

|--3--3--3--3-3--3-3--3--3--|---------------------------|

|--------------------------|

|--------------------------|

|--3--3--3--3--2--2--2--2--|

|--------------------------|

 

 

Verse:

|---------------------------|---------------------------|--------------------------|

|---------------------------|---------------------------|--------------------------|

|---3--3--3--3--3--3--3--3--|--3--3--3--3-3--3--3-3-----|--------------------------|

|---------------------------|------------------------1--|--3--3--3--3--3--3--3--3--|

|---------------------------|---------------------------|

|---------------------------|---------------------------|

|---------------------------|--2--2--2-0--2--2--2-0--2--|

|--3--3--3-3--3--3-1--3--3--|---------------------------|

|---------------------------|--------------------------|------------------------|

|---------------------------|--------------------------|------------------------|

|--2--2-0--2--2-0--2--2--2--|--3--3--3--3--3--3--3-3---|--3--3--3----3---2------|

|---------------------------|--------------------------|---------------------0--|

|---------------------------|---------------------------|

|---------------------------|---------------------------|

|---------------------------|-------------------------0-|

|--0--0-0--0--0--0--0-0--0--|--0--0--0--0--0-0--0--0----|

|---------------------------|--------------------------|

|---------------------------|--------------------------|

|--5--5--5--5-5--5--5--0--5-|--5--5--5--0--5--3--2--0--|

|---------------------------|--------------------------|

|---------------------------|--------------------------|

|---------------------------|--------------------------|

|--3--3--3--3-3--3--3--3--3-|--3--3--3--3--3--3--2--3--|

|---------------------------|--------------------------|

|--------------------------|---------------------------|

|--------------------------|---------------------------|

|--5--5--5--5--5--5--5--5--|--5--5--5----x----5--3--2--|

|--------------------------|---------------------------|

 

 

Chorus:

|---------------------------|---------------------------|

|---------------------------|---------------------------|

|---------------------------|---------------------------|

|--0--0--0--0-0--0-0--0--0--|--3--3--3--3-3--3-3--3--3--|

|---------------------------|--------------------------|

|---------------------------|--------------------------|

|--0--0--0--0-0--0--0-0--0--|--3--3--3--3--2--2--2--2--|

|---------------------------|--------------------------|

|--------------------------|---------------------------|

|--2--0--2--0--2--0--2--0--|---------------------------|

|--------------------------|---------------------------|

|--------------------------|--3--3--3--3-3--3-3--3--3--|

|---------------------------|--------------------------|

|---------------------------|--------------------------|

|--0--0--0--0-0--0--0-0--0--|--3--3--3--3--2--2--2--2--|

|---------------------------|--------------------------|

Interlude:

|--------------------------|--------------------------|

|--------------------------|--------------------------|

|--3--3--3--3--3--3--3--3--|--3--3--3--3--3--3--3--0--|

|--------------------------|--------------------------|

|--------------------------|--------------------------|

|--------------------------|--------------------------|

|--------------------------|--------------------------|

|--0--0--0--0--0--0--0--0--|--0--0--0--0--0--0--0--0--|

|--------------------------|--------------------------|

|--------------------------|--------------------------|

|--0--0--0--0--0--0--0--0--|--2--2--2--2--2--2--2--2--|

|--------------------------|--------------------------|

|--------------------------|--------------------------|

|--------------------------|--------------------------|

|--3--3--3--3--3--3--3--3--|--3--3--3--3--3--3--3--2--|

|--------------------------|--------------------------|

|------------------------|-----------------------|

|------------------------|-----------------------|

|--5--5----0--5--5----0--|--5--5----0--5----6----|

|------------------------|-----------------------|

 

Solo:

|---------------------------|---------------------------|

|---------------------------|---------------------------|

|---------------------------|---------------------------|

|--0--0--0--0-0--0-0--0--0--|--3--3--3--3-3--3-3--3--3--|

|---------------------------|--------------------------|

|---------------------------|--------------------------|

|--0--0--0--0-0--0--0-0--0--|--3--3--3--3--2--2--2--2--|

|---------------------------|--------------------------|

|---------------------------|---------------------------|

|---------------------------|---------------------------|

|---------------------------|---------------------------|

|--0--0--0--0-0--0-0--0--0--|--3--3--3--3-3--3-3--3--3--|

|---------------------------|--------------------------|

|---------------------------|--------------------------|

|--0--0--0--0-0--0--0-0--0--|--3--3--3--3--2--2--2--2--|

|---------------------------|--------------------------|

|---------------------------|---------------------------|

|---------------------------|---------------------------|

|---------------------------|---------------------------|

|--0--0--0--0-0--0-0--0--0--|--3--3--3--3-3--3-3--3--3--|

|---------------------------|--------------------------|

|---------------------------|--------------------------|

|--0--0--0--0-0--0--0-0--0--|--3--3--3--3--2--2--2--2--|

|---------------------------|--------------------------|

 

 

Outro:

|--------------------------|---------------------------|

|--2--0--2--0--2--0--2--0--|---------------------------|

|--------------------------|---------------------------|

|--------------------------|--3--3--3--3-3--3-3--3--3--|

|---------------------------|--------------------------|

|---------------------------|--------------------------|

|--0--0--0--0-0--0--0-0--0--|--3--3--3--3--2--2--2--2--|

|---------------------------|--------------------------|

|--------------------------|---------------------------|

|--------------------------|---------------------------|

|--------------------------|---------------------------|

|-0--0--0--0-0--0-0--0--0--|--3--3--3--3-3--3-3--3--3--|

|---------------------------|--------------------------|

|---------------------------|--------------------------|

|--0--0--0--0-0--0--0-0--0--|--3--3--3--3--2--2--2--2--|

|---------------------------|--------------------------|

|--------------------------|---------------------------|

|--2--0--2--0--2--0--2--0--|---------------------------|

|--------------------------|---------------------------|

|--------------------------|--3--3--3--3-3--3-3--3--3--|

|---------------------------|---------------------||

|---------------------------|---------------------||

|--0--0--0--0-0--0--0-0--0--|--3--3--3----2--2--2-||

|---------------------------|---------------------||

Return to my Bad Religion Bass Tabs page

The Tablature is Copyright its respective owners.

Sign Up For My Newsletter
Subscribe | Unsubscribe

Site Map | Disclaimer | Privacy Policy | Media Kit | Submissions/Corrections

Website © 2000-2014 mattsmusicpage.com. All rights reserved.

Get our toolbar!