Your One-Stop Source For
Music Lyrics
Bass and Guitar Tabs
and More...
>Music Lyrics Bass and Guitar Tabs

 

The Bad Religion Bass Tabs Are Below

Learn To Read Tab
Chords Handbook
Corrections & Additions
Get Official Tab
Bad Religion tabs @ 911Tabs

THE GRAND DELUSION (Bassline)

As recorded by Bad Religion

(From the 2007 Album NEW MAPS OF HELL)

 

Words and Music by Bad Religion

Arranged by Bad Religion

Transcribed by Spidey255

 

Gtr I (E A D G) - 'Untitled'

 

Verse

Q=160

4/4

Gtr I

S S E +E E S S E +E E S S E +E E E E E E

||--------------------------|------------------------------|

||o-------------------------|------------------------------|

||o-7-7-7-(7)-7-9-9-9-(9)-9-|-10-10-10-(10)-10-12-12-14-14-|

||--------------------------|------------------------------|

 

 

S S E +E E S S E +E E S S E +E E S S E +E E

|-------------------------|----------------------------||

|-------------------------|---------------------------o||

|-------------2-2-2-(2)-2-|-3-3-3-(3)-3-5-5-5-(5)-5---o||

|-0-0-0-(0)-0-------------|----------------------------||

 

 

Pre-Chorus

1.

E E E E E E E E E E E E E E E E E E E E E E E E Q Q Q Q

||------------------|-----------------|-----------------|-----------------||

||o-----------------|-----------------|-----------------|----------------o||

||o-3-3-3-3-3-3-3-3-|-2-2-2-2-2-2-2-2-|-----------------|-10\--5--0--2---o||

||------------------|-----------------|-0-0-0-0-0-0-0-0-|-----------------||

 

 

2.

E E Q E E Q E E Q Q Q E E E E E E E E E E E E E E E E

|-----------------|--------------|-----------------|-----------------|

|-----------------|--------------|-----------------|-----------------|

|-----7\------7\--|-----------2--|-3-3-3-3-3-3-3-3-|-2-2-2-2-2-2-2-2-|

|-0-0-----0-0-----|-0-0-2--3-----|-----------------|-----------------|

 

 

E E E E E E E E Q Q Q Q E E E E E E E E E E E E E E E E

|-----------------|---------------|-----------------|-----------------|

|-----------------|---------------|-----------------|-----------------|

|-----------------|-10\--5--0--2--|-3-3-3-3-3-3-3-3-|-2-2-2-2-2-2-2-2-|

|-0-0-0-0-0-0-0-0-|---------------|-----------------|-----------------|

 

 

Chorus

E E E E Q E E E E E E Q E E 3x E E E E Q E E E E E E Q E E

||-----------------|-----------------||----------------|-----------------|

||o----------------|----------------o||----------------|-----------------|

||o----------------|----------------o||----------------|-----------------|

||--0-0-0-0-0--0-0-|-0-0-0-0-0--0-0--||-5-5-5-5-5--5-5-|-3-3-3-3-3--3-3--|

 

 

To Coda

E E E E Q E E E E E E Q E E E E E E Q E E

|----------------|----------------|----------------|

|----------------|----------------|----------------|

|---------7--7-7-|-5-5-5-5-5--5-5-|----------------|

|-0-0-0-0--------|----------------|-5-5-5-5-5--5-5-|

 

 

E E E E E E E E E E E E E E E E

|-----------------|-----------------|

|-----------------|-----------------|

|-2-2-2-2-2-2-2-2-|-2-2-2-2-2-2-2-2-|

|-----------------|-----------------|

 

 

Pre-Verse

S S E +E E S S E +E E S S E +E E E E E E

|-------------------------|------------------------------|

|-------------------------|------------------------------|

|-7-7-7-(7)-7-9-9-9-(9)-9-|-10-10-10-(10)-10-12-12-14-14-|

|-------------------------|------------------------------|

 

 

D.C. al Coda

S S E +E E S S E +E E S S E +E E S S E +E E

|-------------------------|---------------------------|

|-------------------------|---------------------------|

|-------------2-2-2-(2)-2-|-3-3-3-(3)-3-5-5-5-(5)-5---|

|-0-0-0-(0)-0-------------|---------------------------|

 

 

Out-Chorus

&

E E E E Q E E E E E E Q E E E E E E Q E E E E E E Q E E

|----------------|----------------|----------------|----------------|

|-5-5-5-5-5--5-5-|----------------|----------------|----------------|

|----------------|---------7--7-7-|-5-5-5-5-5--5-5-|----------------|

|----------------|-0-0-0-0--------|----------------|-5-5-5-5-5--5-5-|

 

 

E E E E E E E E E E E E E E E E W W +W

|-----------------|-----------------|----------|----------|--------*|

|-----------------|-----------------|----------|----------|--------*|

|-2-2-2-2-2-2-2-2-|-2-2-2-2-2-2-2-2-|----------|----------|--------*|

|-----------------|-----------------|----------|-0--------|-(0)----*|

 

 

Duration Legend

---------------

W - whole; H - half; Q - quarter; E - 8th; S - 16th; T - 32nd; X - 64th; a - acciaccatura

+ - note tied to previous; . - note dotted; .. - note double dotted

Uncapitalized letters represent notes that are staccato (1/2 duration)

Irregular groupings are notated above the duration line

Duration letters will always appear directly above the note/fret number it represents the

duration for. Duration letters with no fret number below them represent rests. Multi-

bar rests are notated in the form Wxn, where n is the number of bars to rest for. Low

melody durations appear below the staff

 

Tablature Legend

----------------

h - hammer-on

p - pull-off

b - bend

pb - pre-bend

r - bend release (if no number after the r, then release immediately)

/\ - slide into or out of (from/to "nowhere")

s - legato slide

S - shift slide

- natural harmonic

[n] - artificial harmonic

n(n) - tapped harmonic

~ - vibrato

tr - trill

T - tap

TP - trem. picking

PM - palm muting

\n/ - tremolo bar dip; n = amount to dip

\n - tremolo bar down

n/ - tremolo bar up

/n\ - tremolo bar inverted dip

= - hold bend; also acts as connecting device for hammers/pulls

<> - volume swell (louder/softer)

x - on rhythm slash represents muted slash

o - on rhythm slash represents single note slash

 

Misc Legend

-----------

| - bar

|| - double bar

||o - repeat start

o|| - repeat end

*| - double bar (ending)

: - bar (freetime)

$ - Segno

& - Coda

Tempo markers - = BPM(8/16=s8/s16), where s8 = swing 8ths, s16 = swing 16ths

Return to my Bad Religion Bass Tabs page

The Tablature is Copyright its respective owners.

Sign Up For My Newsletter
Subscribe | Unsubscribe

Site Map | Disclaimer | Privacy Policy | Media Kit | Submissions/Corrections

Website © 2000-2014 mattsmusicpage.com. All rights reserved.

Legal & DMCA: Matt's Music Page has been providing lyrics and tabs in a legal way, paying royalties each year to a few organizations. Then, all lyrics and tabs were removed from the site. Now, there's a new owner to the site, which purchased it August 26, 2014, and he is in negotiation to obtain licensing from BMI at the moment. If you have a specific DMCA request -- please do not hesitate to contact me via the contact button on top. I will do my very best to keep this site fully legal.

Get our toolbar!

 


MINT Eddie Van Halen with Guitar Funko Pop Vinyl Figure #258
$
MINT Eddie Van Halen with Guitar Funko Pop Vinyl Figure #258 picture


Funko POP Disney Lilo & Stitch 127# Elvis Stitch Playing Guitar Vinyl Figures
$
Funko POP Disney Lilo & Stitch 127# Elvis Stitch Playing Guitar Vinyl Figures picture


Funko Pop Stranger Things #1250 Eddie Guitar Target Exclusive NOVEMBER PRE-ORDER
$
Funko Pop Stranger Things #1250 Eddie Guitar Target Exclusive NOVEMBER PRE-ORDER picture


Large 6" Electric Guitar Design Novelty Collectible Lighter W/ Flashing Lights
$
Large 6


FUNKO POP NETFLIX STRANGER THINGS EDDIE #1250 WITH GUITAR SPECIAL EDITION
$
FUNKO POP NETFLIX STRANGER THINGS EDDIE #1250 WITH GUITAR SPECIAL EDITION picture


Funko POP My Hero Academia - Kyoka Jiro With Guitar Special Edition Exclusive
$
Funko POP My Hero Academia - Kyoka Jiro With Guitar Special Edition Exclusive picture


Eddie Van Halen w/Guitar (Van Halen) Funko Pop Rocks #258
$
Eddie Van Halen w/Guitar (Van Halen) Funko Pop Rocks #258  picture


18 1" Classic Rock Band Buttons Pins 70s 80s Music Badge Lot Pinback Resale
$
18 1


PRS Dragon Guitar .Miniature Guitar Brand NEW. Not Axe Heaven . Paul Reed Smith
$
PRS Dragon Guitar .Miniature Guitar Brand NEW. Not Axe Heaven . Paul Reed Smith picture


IN HAND ✅ FUNKO POP STRANGER THINGS EDDIE W/ GUITAR #1250 TARGET EXCLUSIVE ✅
$
IN HAND ✅ FUNKO POP STRANGER THINGS EDDIE W/ GUITAR #1250 TARGET EXCLUSIVE ✅ picture