Your One-Stop Source For
Music Lyrics
Bass and Guitar Tabs
and More...
Music Lyrics Bass and Guitar Tabs

 

The Tabs Are Below

Learn To Read Tab
Chords Handbook
Corrections & Additions
Get Official Tab
Bad Religion tabs @ 911Tabs

 Supersonic - Bad Religion

-------------------------------------------------------------------------------

 

By: Adam Cady (akc05@juno.com)

 

intro =

e------------------------------------------------------------------------

------------

B------------------------------------------------------------------------

------------

G----9-9-9---12-- 9---12----14----12---14---15---14---12-------------

D----9-9-9---12---9---12----14----12---14---15---14---12--------------

A-----7-7-7---10---7--10-----12---10---12---13---12---10--------------

E------------------------------------------------------------------------

------------

E G E G A G A A# A

G

e--------------------------------------------------------------------

B-------------------------------------------------------------------

G----9-9-9---12-- 9---12----15----14---12----------------

D----9-9-9---12---9---12----15----14---12-----9----------

A-----7-7-7---10---7--10-----13----12---10-----9---------

E--------------------------------------------------------7-----------

E G E G A# A G B

 

verse = E G E G C B (4x)

 

chorus = C D G Em (3x) C D G

("I could go supersonic...")

 

intro

 

verse

 

chorus

 

bridge = Em D G B, Em D C D (Eb)

("I won't lie..")

 

intro

 

chorus

 

intro (end on E instead of B)

 

Return to my Bad Religion tabs page

The Tablature is Copyright its respective owners.

Sign Up For My Newsletter
Subscribe | Unsubscribe

Site Map | Disclaimer | Privacy Policy | Media Kit | Submissions/Corrections

Website © 2000-2014 mattsmusicpage.com. All rights reserved.

Legal & DMCA: Matt's Music Page has been providing lyrics and tabs in a legal way, paying royalties each year to a few organizations. Then, all lyrics and tabs were removed from the site. Now, there's a new owner to the site, which purchased it August 26, 2014, and he is in negotiation to obtain licensing from BMI at the moment. If you have a specific DMCA request -- please do not hesitate to contact me via the contact button on top. I will do my very best to keep this site fully legal.

Get our toolbar!