Your One-Stop Source For
Music Lyrics
Bass and Guitar Tabs
and More...
Music Lyrics Bass and Guitar Tabs

 

The Tabs Are Below

Learn To Read Tab
Chords Handbook
Corrections & Additions
Get Official Tab
Bad Religion tabs @ 911Tabs

Suffer

Ryan

d95mr@causeway.infc.ulst.ac.uk

 

*** Song Structure ***

Intro Chorus 2

Riff A1 (x3) Riff E (x3)

Riff A2 Riff F

 

Verse 1 Bridge

Riff B (x2) Riff G (x11)

Riff C Riff H

Riff D

Solo

Chorus 1 Riff B (x2)

Riff E (x3) Riff C

Riff F Riff D

Riff A1

Riff A2 Chorus 3

Riff E (x3)

Verse 2 Riff F (x2)

Riff B (x2)

Riff C Outro

Eiff D Riff B (x3)

Riff I

 

*** Riffs ***

Riff A1 End Riff A1 Riff A2 End Riff A2

|-0---------------0---------------| |-0-------0-------0-------0-------|

|-1---------------1---------------| |-1-------1-------1-------1-------|

|-2---------------2---------------| |-2-------2-------2-------2-------|

|-2---------------2---------------| |-2-------2-------2-------2-------|

|-0---------------0---------------| |-0-------0-------0-------0-------|

|---------------------------------| |---------------------------------|

 

Riff B End Riff B

|---------------------------------|---------------------------------|

|---------------------------------|---------------------------------|

|---------------------------------|---------------------------------|

|-7---7-7---7-7---7---7-7----7-7--|-3---3-3---3-3---3---3-3---3-3---|

|-7---7-7---7-7---7---7-7----7-7--|-3---3-3---3-3---3---3-3---3-3---|

|-5---5-5---5-5---5---5-5----5-5--|-1---1-1---1-1---1---1-1---1-1---|

 

Riff C End Riff C

|---------------------------------|---------------------------------|

|---------------------------------|---------------------------------|

|---------------------------------|---------------------------------|

|-5---5-5---5-5---5---5-5---5-5---|-7---7-7---7-7---7---7-7---7-7---|

|-5---5-5---5-5---5---5-5---5-5---|-7---7-7---7-7---7---7-7---7-7---|

|-3---3-3---3-3---3---3-3---3-3---|-5---5-5---5-5---5---5-5---5-5---|

 

Riff D End Riff D Riff E End Riff E

|---------------------------------| |---------------------------------|

|---------------------------------| |---------------------------------|

|---------------------------------| |-10------9-----------------------|

|-5---5-5---5-5---5---5-5---5-5---| |-10------9-------7---7-7---7-7---|

|-5---5-5---5-5---5---5-5---5-5---| |-8-------7-------7---7-7---7-7---|

|-3---3-3---3-3---3---3-3---3-3---| |-----------------5---5-5---5-5---|

 

Riff F End Riff F

|---------------------------------|---------------------------------|

|---------------------------------|---------------------------------|

|-10--1010--1010--10--1010--1010--|-9---9-9---9-9---9---9-9---9-9---|

|-10--1010--1010--10--1010--1010--|-9---9-9---9-9---9---9-9---9-9---|

|-8---8-8---8-8---8---8-8---8-8---|-7---7-7---7-7---7---7-7---7-7---|

|---------------------------------|---------------------------------|

 

Riff G End Riff G Riff H End Riff

H

|---------------------------------|

|---------------------------------|

|---------------------------------|

|---------------------------------|

|-9---9-9---9-9---10--1010--1010--|

|-9---9-9---9-9---9---9-9---9-9---|

|-9---9-9---9-9---10--1010--1010--|

|-9---9-9---9-9---9---9-9---9-9---|

|-7---7-7---7-7---8---8-8---8-8---|

|-7---7-7---7-7---7---7-7---7-7---|

|---------------------------------|

|---------------------------------|

 

Riff I End Riff I

|--------------------------------||

|--------------------------------||

|--------------------------------||

|-7---7---5---7-\-\-\------------||

|-7---7---5---7-\-\-\------------||

|-5---5---3---5-\-\-\------------||

 

*** Lyrics ***

Verse 1

Did you ever see the concrete stares of everyday?

The lunatic, The hypocrite are all lost in the fray,

Can't you see their lives are just like ours?

 

Chorus 1

An unturned stone, An undiscovered...

Door leading too, The gift of hope renewed, Eternity for you,

The masses of humanity have always had to suffer.

 

Verse 2

The businessmen whose master plan controls the world each day,

Is blind to indications of his species slow decay, Can't you

see his life is just like yours?

 

Chorus 2

An unturned stone, An undiscovered...

Door leading too, the gift of hope renewed, Eternity for you,

The masses of humanity have always had to suffer.

 

Bridge

People blow their minds, They choose to resign,

This deformed society is part of the design,

It'll never go away, It's in the cards that way,

The masses of humanity have always, always had to suffer!

 

Chorus 3

Door leading too, the gift of hope renewed, Eternity for you,

The masses of humanity still clinging to their dignity, The

masses of humanity have always, always had to suffer!

 

Always have to suffer!

 

 

Return to my Bad Religion tabs page

The Tablature is Copyright its respective owners.

Sign Up For My Newsletter
Subscribe | Unsubscribe

Site Map | Disclaimer | Privacy Policy | Media Kit | Submissions/Corrections

Website © 2000-2014 mattsmusicpage.com. All rights reserved.

Legal & DMCA: Matt's Music Page has been providing lyrics and tabs in a legal way, paying royalties each year to a few organizations. Then, all lyrics and tabs were removed from the site. Now, there's a new owner to the site, which purchased it August 26, 2014, and he is in negotiation to obtain licensing from BMI at the moment. If you have a specific DMCA request -- please do not hesitate to contact me via the contact button on top. I will do my very best to keep this site fully legal.

Get our toolbar!