Your One-Stop Source For
Music Lyrics
Bass and Guitar Tabs
and More...
>Music Lyrics Bass and Guitar Tabs

 

The Bad Religion Tabs Are Below

Learn To Read Tab
Chords Handbook
Corrections & Additions
Get Official Tab
Bad Religion tabs @ 911Tabs

SUBMISSION COMPLETE

As recorded by Bad Religion

(From the 2007 Album NEW MAPS OF HELL)

 

Transcribed by Whoabot

 

 

Words and Music by Bad Religion

Arranged by Bad Religion

 

Gtr I (E A D G B E)

Gtr II (E A D G B E)

Gtr III (E A D G B E)

 

Intro

Q=138

A5 Bb5 A5 Bb5

5/4

Gtrs I, II

PM

E E E E E E E E E E E E E E E E E E E E

|-----------------------------|-----------------------------||

|-----------------------------|-----------------------------||

|-----------------------------|-----------------------------||

|-7--x--7--x--7--x--7--x--7-8-|-7--x--7--x--7--x--7--x--7-8-||

|-7--x--7--x--7--x--7--x--7-8-|-7--x--7--x--7--x--7--x--7-8-||

|-5-<5>-5-<5>-5-<5>-5-<5>-5-6-|-5-<5>-5-<5>-5-<5>-5-<5>-5-6-||

 

 

Verse

A5 Bb5 A5 Bb5

4/4

E E E E E E E E E E E E E E E E

||------------------------|-----------------------|

||o-----------------------|-----------------------|

||------------------------|-----------------------|

||--7--x--7--x--7--x--7-8-|-7--x--7--x--7--x--7-8-|

||o-7--x--7--x--7--x--7-8-|-7--x--7--x--7--x--7-8-|

||--5-<5>-5-<5>-5-<5>-5-6-|-5-<5>-5-<5>-5-<5>-5-6-|

 

 

A5 Bb5 A5 Bb5

E E E E E E E E E E E E E E E E

|-----------------------|-------------------------||

|-----------------------|------------------------o||

|-----------------------|-------------------------||

|-7--x--7--x--7--x--7-8-|-7--x--7--x--7--x--7-8---||

|-7--x--7--x--7--x--7-8-|-7--x--7--x--7--x--7-8--o||

|-5-<5>-5-<5>-5-<5>-5-6-|-5-<5>-5-<5>-5-<5>-5-6---||

 

 

horus

1.

D5 C5 Bb5 F5 C5 D5 C5 Bb5 A5

E E E E q Q E E E E E E E E E E E E q Q E E E E E E E E

||----------------|-----------------------|---------------|-------------------||

||o---------------|-----------------------|---------------|------------------o||

||--7-7-7-7-7--5--|-3-3-3-3---/10--10-----|-7-7-7-7-7--5--|-------------------||

||--7-7-7-7-7--5--|-3-3-3-3-3-/10--10-----|-7-7-7-7-7--5--|-8-8-8-8-7-7-7-7---||

||o-5-5-5-5-5--3--|-1-1-1-1-1--/8---8--10-|-5-5-5-5-5--3--|-8-8-8-8-7-7-7-7--o||

||----------------|-----------/(8)-(8)--8-|---------------|-6-6-6-6-5-5-5-5---||

 

 

2.

D5 C5 Bb5 C5

2/4 4/4

Gtr I

E E E E E E E E E E E E E E E E E E E E E E E E E E Q

|-----------------|---------|-----------------|-----------------||

|-----------------|---------|-----------------|-----------------||

|-7-7-7-7-5-5-5-5-|-3-3-3-3-|-5-5-5-5-5-5-5-5-|-5-5-5-5-5-------||

|-7-7-7-7-5-5-5-5-|-3-3-3-3-|-5-5-5-5-5-5-5-5-|-5-5-5-5-5---5---||

|-5-5-5-5-3-3-3-3-|-1-1-1-1-|-3-3-3-3-3-3-3-3-|-3-3-3-3-3-7-----||

|-----------------|---------|-----------------|-----------------||

|

| Gtr II

| E E E E E E E E E E E E E E E E E E E E E E E E E E E E

|-----------------|---------|-----------------|-----------------||

|-----------------|---------|-----------------|-----------------||

|-7-7-7-7-5-5-5-5-|-3-3-3-3-|-5-5-5-5-5-5-5-5-|-5-5-5-5-5-5-5-5-||

|-7-7-7-7-5-5-5-5-|-3-3-3-3-|-5-5-5-5-5-5-5-5-|-5-5-5-5-5-5-5-5-||

|-5-5-5-5-3-3-3-3-|-1-1-1-1-|-3-3-3-3-3-3-3-3-|-3-3-3-3-3-3-3-3-||

|-----------------|---------|-----------------|-----------------||

 

 

Pre-Verse

A5 Bb5 A5 Bb5

5/4

W +Q +H +E E Q Q

|-------------------------------|---------------------------------|

|-------------------------------|---------------------------------|

|-------------------------------|---------------------------------|

|-7-----------------------(7)---|-(7)-----------(7)-----5-----8---|

|-------------------------------|--------------------7------------|

|-------------------------------|---------------------------------|

|

| PM

| E E E E E E E E E E E E E E E E E E E E

|-------------------------------|---------------------------------|

|-------------------------------|---------------------------------|

|-------------------------------|---------------------------------|

|-7--x--7--x--7--x--7--x---7--8-|--7---x--7--x---7---x--7--x--7-8-|

|-7--x--7--x--7--x--7--x---7--8-|--7---x--7--x---7---x--7--x--7-8-|

|-5-<5>-5-<5>-5-<5>-5-<5>--5--6-|--5--<5>-5-<5>--5--<5>-5-<5>-5-6-|

 

 

A5 Bb5 A5 Bb5

Q. E H. +W +Q

|-------------------------------|-----------------------------------||

|-------------------------------|-----------------------------------||

|-----------7-------------------|-----------------------------------||

|-7------------7----------------|-(7)-----------------------(7)-----||

|-------------------------------|-----------------------------------||

|-------------------------------|-----------------------------------||

|

| PM

| E E E E E E E E E E E E E E E E E E E E

|-------------------------------|-----------------------------------||

|-------------------------------|-----------------------------------||

|-------------------------------|-----------------------------------||

|-7---x--7--x--7---x--7--x--7-8-|--7---x--7--x--7--x--7--x---7--8---||

|-7---x--7--x--7---x--7--x--7-8-|--7---x--7--x--7--x--7--x---7--8---||

|-5--<5>-5-<5>-5--<5>-5-<5>-5-6-|--5--<5>-5-<5>-5-<5>-5-<5>--5--6---||

 

 

Verse

A5 Bb5 A5 Bb5

4/4

Gtrs I, II

E E E E E E E E E E E E E E E E

||------------------------|-----------------------|

||o-----------------------|-----------------------|

||------------------------|-----------------------|

||--7--x--7--x--7--x--7-8-|-7--x--7--x--7--x--7-8-|

||o-7--x--7--x--7--x--7-8-|-7--x--7--x--7--x--7-8-|

||--5-<5>-5-<5>-5-<5>-5-6-|-5-<5>-5-<5>-5-<5>-5-6-|

 

 

A5 Bb5 A5 Bb5

E E E E E E E E E E E E E E E E

|-----------------------|-------------------------||

|-----------------------|------------------------o||

|-----------------------|-------------------------||

|-7--x--7--x--7--x--7-8-|-7--x--7--x--7--x--7-8---||

|-7--x--7--x--7--x--7-8-|-7--x--7--x--7--x--7-8--o||

|-5-<5>-5-<5>-5-<5>-5-6-|-5-<5>-5-<5>-5-<5>-5-6---||

 

 

Chorus

1.

D5 C5 Bb5 F5 C5 D5 C5 Bb5 A5

E E E E q Q E E E E E E E E E E E E q Q E E E E E E E E

||----------------|-----------------------|---------------|-------------------||

||o---------------|-----------------------|---------------|------------------o||

||--7-7-7-7-7--5--|-3-3-3-3---/10--10-----|-7-7-7-7-7--5--|-------------------||

||--7-7-7-7-7--5--|-3-3-3-3-3-/10--10-----|-7-7-7-7-7--5--|-8-8-8-8-7-7-7-7---||

||o-5-5-5-5-5--3--|-1-1-1-1-1--/8---8--10-|-5-5-5-5-5--3--|-8-8-8-8-7-7-7-7--o||

||----------------|-----------/(8)-(8)--8-|---------------|-6-6-6-6-5-5-5-5---||

 

 

2.

D5 C5 Bb5 C5

2/4 4/4

E E E E E E E E E E E E E E E E E E E E E E E E E E E E

|-----------------|---------|-----------------|-----------------||

|-----------------|---------|-----------------|-----------------||

|-7-7-7-7-5-5-5-5-|-3-3-3-3-|-5-5-5-5-5-5-5-5-|-5-5-5-5-5-5-5-5-||

|-7-7-7-7-5-5-5-5-|-3-3-3-3-|-5-5-5-5-5-5-5-5-|-5-5-5-5-5-5-5-5-||

|-5-5-5-5-3-3-3-3-|-1-1-1-1-|-3-3-3-3-3-3-3-3-|-3-3-3-3-3-3-3-3-||

|-----------------|---------|-----------------|-----------------||

 

 

Interlude

D5 Bb5 F5 C5 Bb5

Gtr I

Q Q H W W H E E Q

||------------------|------------------||-----------------|-------------------|

||o-----------------|-----------------o||-----------------|-------------------|

||----------7-------|------------------||-----------------|-------------------|

||------7-----------|------------------||-----------------|-------------------|

||o-5---------------|-----------------o||-----------------|-----------x-13\---|

||------------------|------------------||-----------------|-------------------|

|

| Gtr II

| E E E E E E E E E E E E E E E E E E E E E E E E E E E E E E Q

||------------------|------------------||-----------------|-------------------|

||o-----------------|-----------------o||-----------------|-------------------|

||--7-7-7-7-7-7-7-7-|------------------||-----------------|-5-5-5-5-5-5--3----|

||--7-7-7-7-7-7-7-7-|-8-8-8-8-8-8-8-8--||-3-3-3-3-3-3-3-3-|-5-5-5-5-5-5--3----|

||o-5-5-5-5-5-5-5-5-|-8-8-8-8-8-8-8-8-o||-3-3-3-3-3-3-3-3-|-3-3-3-3-3-3--1----|

||------------------|-6-6-6-6-6-6-6-6--||-1-1-1-1-1-1-1-1-|-------------------|

 

 

A5 Bb5 A5 Bb5

5/4

W +Q +H +E E Q Q

|-------------------|----------------------|

|-------------------|----------------------|

|-------------------|----------------------|

|-7-----------(7)---|-(7)-----(7)---5--8---|

|-------------------|-------------7--------|

|-------------------|----------------------|

|

| q q q q E E q q q q E E

|-------------------|----------------------|

|-------------------|----------------------|

|-------------------|----------------------|

|-7--7--7--7---7--8-|--7---7---7----7--7-8-|

|-7--7--7--7---7--8-|--7---7---7----7--7-8-|

|-5--5--5--5---5--6-|--5---5---5----5--5-6-|

 

 

A5 Bb5 A5 Bb5

Q. E H. +H. +E E Q

|--------------------|------------------------||

|--------------------|------------------------||

|-------7------------|------------------------||

|-7-------7----------|-(7)--------(7)---5-----||

|--------------------|----------------7-------||

|--------------------|------------------------||

|

| q q q q E E q q q q E E

|--------------------|------------------------||

|--------------------|------------------------||

|--------------------|------------------------||

|-7---7---7---7--7-8-|--7---7--7---7----7-8---||

|-7---7---7---7--7-8-|--7---7--7---7----7-8---||

|-5---5---5---5--5-6-|--5---5--5---5----5-6---||

 

 

Guitar Solo

A5 Bb5 A5 Bb5

4/4

Gtr III

Q S E. Q S S E Q S S E H

|-12--10p8---------------|---------------------|

|-----------11--11h13p11-|-10--10h11p10-8------|

|------------------------|---------------------|

|------------------------|---------------------|

|------------------------|---------------------|

|------------------------|---------------------|

|

| q q q E E q q q E E

|------------------------|---------------------|

|------------------------|---------------------|

|------------------------|---------------------|

|--7---7-----7---7-----8-|--7---7-------7--7-8-|

|--7---7-----7---7-----8-|--7---7-------7--7-8-|

|--5---5-----5---5-----6-|--5---5-------5--5-6-|

 

 

A5 Bb5 A5 Bb5

~

+E E. E. E. E. S S W

|---------------------------|----------------|

|-(8)\----------------------|----------------|

|------/9----7--6--7----6h7p|=6--------------|

|---------------------------|----------------|

|---------------------------|----------------|

|---------------------------|----------------|

|

| q q q E E q q q E E

|---------------------------|----------------|

|---------------------------|----------------|

|---------------------------|----------------|

|--7-------7----7-----7-8---|-7--7--7--7-8---|

|--7-------7----7-----7-8---|-7--7--7--7-8---|

|--5-------5----5-----5-6---|-5--5--5--5-6---|

 

 

A5 Bb5 A5 Bb5

PM| ~~~~ ~

S S a E. E. Q. S S E. E. S S Q +Q

|-----------------------------|-----------------------|

|-x-x-------------------------|-----------------------|

|-x-x-/6h7----9--/10-----10p9-|-9--7----6h7p6--(6)/---|

|-x-x-------------------------|-----------------------|

|-x-x-------------------------|-----------------------|

|-----------------------------|-----------------------|

|

| q q q E E q q q E E

|-----------------------------|-----------------------|

|-----------------------------|-----------------------|

|-----------------------------|-----------------------|

|-7---------7------7---7--8---|-7-----7-----7---7---8-|

|-7---------7------7---7--8---|-7-----7-----7---7---8-|

|-5---------5------5---5--6---|-5-----5-----5---5---6-|

 

 

A5 Bb5 A5 Bb5

~~~~

Q Q S S S S Q Q Q Q Q

|-[12]--10--9h10p9h10-9\---|-10--12--13--15---||

|--------------------------|--8--10--11--13---||

|--------------------------|------------------||

|--------------------------|------------------||

|--------------------------|------------------||

|--------------------------|------------------||

|

| q q q E E q q q E E

|--------------------------|------------------||

|--------------------------|------------------||

|--------------------------|------------------||

|---7----7--7---------7--8-|--7---7---7---7-8-||

|---7----7--7---------7--8-|--7---7---7---7-8-||

|---5----5--5---------5--6-|--5---5---5---5-6-||

 

 

Out-Chorus

D5 C5 Bb5 F5 C5

Q +Q +H +Q. +Q Q.

|-17-------(17)---(17)-----|-(17)-----(17)\----------------|

|-17b18====(17)---(17)-----|-(17)-----(17)r\---------------|

|--------------------------|-------------------------------|

|--------------------------|-------------------------------|

|--------------------------|-------------------------------|

|--------------------------|-------------------------------|

|

| Gtrs I, II

| E E E E q Q E E E E E E E E

|--------------------------|-------------------------------|

|--------------------------|-------------------------------|

|--7-----7---7--7---7---5--|---3--3-3---3------/10--10-----|

|--7-----7---7--7---7---5--|---3--3-3---3----3-/10--10-----|

|--5-----5---5--5---5---3--|---1--1-1---1----1--/8---8--10-|

|--------------------------|-------------------/(8)-(8)--8-|

 

 

D5 C5 Bb5 A5

W W

|---------------|-----------------|

|---------------|-----------------|

|---------------|-----------------|

|---------------|-----------------|

|---------------|-----------------|

|---------------|-----------------|

|

| E E E E q Q E E E E E E E E

|---------------|-----------------|

|---------------|-----------------|

|-7-7-7-7-7--5--|-----------------|

|-7-7-7-7-7--5--|-8-8-8-8-7-7-7-7-|

|-5-5-5-5-5--3--|-8-8-8-8-7-7-7-7-|

|---------------|-6-6-6-6-5-5-5-5-|

 

 

D5 C5 Bb5 F5 C5 D5 C5

Gtrs I, II

E E E E q Q E E E E E E E E E E E E E E E E

|---------------|-----------------------|-----------------|

|---------------|-----------------------|-----------------|

|-7-7-7-7-7--5--|-3-3-3-3---/10--10-----|-7-7-7-7-5-5-5-5-|

|-7-7-7-7-7--5--|-3-3-3-3-3-/10--10-----|-7-7-7-7-5-5-5-5-|

|-5-5-5-5-5--3--|-1-1-1-1-1--/8---8--10-|-5-5-5-5-3-3-3-3-|

|---------------|-----------/(8)-(8)--8-|-----------------|

 

 

Bb5 C5

2/4 4/4

E E E E E E E E E E E E E E E E E E E E

|---------|-----------------|-------------------||

|---------|-----------------|-------------------||

|-3-3-3-3-|-5-5-5-5-5-5-5-5-|-5-5-5-5-5-5-5-5---||

|-3-3-3-3-|-5-5-5-5-5-5-5-5-|-5-5-5-5-5-5-5-5---||

|-1-1-1-1-|-3-3-3-3-3-3-3-3-|-3-3-3-3-3-3-3-3---||

|---------|-----------------|-------------------||

 

 

Outro Part 1

Dm Bb5 F5 C5 B5 Bb5

Gtr I

\1

Q Q H +W W W

||------------------|--------------------||-----------------|------------------|

||o-----------------|-------------------o||-----------------|------------------|

||----------7-------|-(7)----------------||-----------------|------------------|

||------7-----------|--------------------||-----------------|------------------|

||o-5---------------|-------------------o||-----------------|------------------|

||------------------|--------------------||-----------------|------------------|

|

| Gtr II

| E E E E E E E E E E E E E E E E E E E E E E E E E E E E E E E E

||------------------|--------------------||-----------------|------------------|

||o-6-6-6-6-6-6-6-6-|-------------------o||-----------------|------------------|

||--7-7-7-7-7-7-7-7-|--------------------||-----------------|-5-5-5-5-5-4-4-3--|

||--7-7-7-7-7-7-7-7-|--8--8-8-8-8-8-8-8--||-3-3-3-3-3-3-3-3-|-5-5-5-5-5-4-4-3--|

||o-5-5-5-5-5-5-5-5-|--8--8-8-8-8-8-8-8-o||-3-3-3-3-3-3-3-3-|-3-3-3-3-3-2-2-1--|

||------------------|--6--6-6-6-6-6-6-6--||-1-1-1-1-1-1-1-1-|------------------|

 

 

Dm Bb5 F5 C5 B5 Bb5

Q Q H W W W

||------------------|------------------||-----------------|------------------||

||o-----------------|-----------------o||-----------------|------------------||

||----------7-------|------------------||-----------------|------------------||

||------7-----------|------------------||-----------------|------------------||

||o-5---------------|-----------------o||-----------------|------------------||

||------------------|------------------||-----------------|------------------||

|

| E E E E E E E E E E E E E E E E E E E E E E E E E E E E E E E E

||------------------|------------------||-----------------|------------------||

||o-6-6-6-6-6-6-6-6-|-----------------o||-----------------|------------------||

||--7-7-7-7-7-7-7-7-|------------------||-----------------|-5-5-5-5-5-4-4-3--||

||--7-7-7-7-7-7-7-7-|-8-8-8-8-8-8-8-8--||-3-3-3-3-3-3-3-3-|-5-5-5-5-5-4-4-3--||

||o-5-5-5-5-5-5-5-5-|-8-8-8-8-8-8-8-8-o||-3-3-3-3-3-3-3-3-|-3-3-3-3-3-2-2-1--||

||------------------|-6-6-6-6-6-6-6-6--||-1-1-1-1-1-1-1-1-|------------------||

 

 

Outro

A5 Bb5 A5 Bb5

5/4

W +Q +H +E E Q Q

||--------------------|----------------------|

||o-------------------|----------------------|

||--------------------|----------------------|

||--7-----------(7)---|-(7)-----(7)---5--8---|

||o-------------------|-------------7--------|

||--------------------|----------------------|

|

| q q q q E E q q q q E E

||--------------------|----------------------|

||o-------------------|----------------------|

||--------------------|----------------------|

||--7--7--7--7---7--8-|--7---7---7----7--7-8-|

||o-7--7--7--7---7--8-|--7---7---7----7--7-8-|

||--5--5--5--5---5--6-|--5---5---5----5--5-6-|

 

 

A5 Bb5 A5 Bb5

Q. E H. +H. +E E Q 4x

|--------------------|------------------------||

|--------------------|-----------------------o||

|-------7------------|------------------------||

|-7-------7----------|-(7)--------(7)---5-----||

|--------------------|----------------7------o||

|--------------------|------------------------||

|

| q q q q E E q q q q E E 4x

|--------------------|------------------------||

|--------------------|-----------------------o||

|--------------------|------------------------||

|-7---7---7---7--7-8-|--7---7--7---7----7-8---||

|-7---7---7---7--7-8-|--7---7--7---7----7-8--o||

|-5---5---5---5--5-6-|--5---5--5---5----5-6---||

 

 

A5 Bb5 A5 Bb5

W +Q +H +E E Q Q

||------------------------|------------------------|

||o-----------------------|------------------------|

||------------------------|------------------------|

||--7---------------(7)---|-(7)-----(7)---5---8----|

||o-----------------------|-------------7----------|

||------------------------|------------------------|

|

| q q q q E E q q q q E E

||------------------------|------------------------|

||o-----------------------|------------------------|

||------------------------|------------------------|

||--7---7---7---7----7--8-|--7---7---7----7---7--8-|

||o-7---7---7---7----7--8-|--7---7---7----7---7--8-|

||--5---5---5---5----5--6-|--5---5---5----5---5--6-|

|

| Gtr III

| >

| E E E E E E E E Q +W +Q

||-------------------5----|-(5)--------------(5)---|

||o-----------5-6-8-------|------------------------|

||----------7-------------|------------------------|

||----7---7---------------|------------------------|

||o-7---7-----------------|------------------------|

||------------------------|------------------------|

 

 

A5 Bb5 A5 Bb5

Q. E H. +H. +E E Q 5x

|-----------------------|-------------------------||

|-----------------------|------------------------o||

|--------7--------------|-------------------------||

|-7--------7------------|-(7)--------(7)----5-----||

|-----------------------|----------------7-------o||

|-----------------------|-------------------------||

|

| q q q q E E q q q q E E 5x

|-----------------------|-------------------------||

|-----------------------|------------------------o||

|-----------------------|-------------------------||

|-7----7---7----7---7-8-|--7---7--7---7-----7--8--||

|-7----7---7----7---7-8-|--7---7--7---7-----7--8-o||

|-5----5---5----5---5-6-|--5---5--5---5-----5--6--||

|

| >

| E E E E E E E E Q +W +Q 5x

|---------------5-6-5---|-(5)--------------(5)----||

|----------5--6---------|------------------------o||

|-----------------------|-------------------------||

|----7---7--------------|-------------------------||

|-7----7----------------|------------------------o||

|-----------------------|-------------------------||

 

 

A5 Bb5 A5 Bb5

W +Q +H +E E Q Q

|-----------------------|------------------------*|

|-----------------------|------------------------*|

|-----------------------|------------------------*|

|-7---------------(7)---|-(7)-----(7)---5---8----*|

|-----------------------|-------------7----------*|

|-----------------------|------------------------*|

|

| q q q q E E q q q q E E

|-----------------------|------------------------*|

|-----------------------|------------------------*|

|-----------------------|------------------------*|

|-7---7---7---7----7--8-|--7---7---7----7---7--8-*|

|-7---7---7---7----7--8-|--7---7---7----7---7--8-*|

|-5---5---5---5----5--6-|--5---5---5----5---5--6-*|

|

| E E E E E E E E Q +W +Q

|------------------5----|-(5)--------------(5)---*|

|-----------5-6-8-------|------------------------*|

|---------7-------------|------------------------*|

|---7---7---------------|------------------------*|

|-7---7-----------------|------------------------*|

|-----------------------|------------------------*|

 

 

 

Duration Legend

---------------

W - whole; H - half; Q - quarter; E - 8th; S - 16th; T - 32nd; X - 64th; a - acciaccatura

+ - note tied to previous; . - note dotted; .. - note double dotted

Uncapitalized letters represent notes that are staccato (1/2 duration)

Irregular groupings are notated above the duration line

Duration letters will always appear directly above the note/fret number it represents the

duration for. Duration letters with no fret number below them represent rests. Multi-

bar rests are notated in the form Wxn, where n is the number of bars to rest for. Low

melody durations appear below the staff

 

Tablature Legend

----------------

h - hammer-on

p - pull-off

b - bend

pb - pre-bend

r - bend release (if no number after the r, then release immediately)

/\ - slide into or out of (from/to "nowhere")

s - legato slide

S - shift slide

- natural harmonic

[n] - artificial harmonic

n(n) - tapped harmonic

~ - vibrato

tr - trill

T - tap

TP - trem. picking

PM - palm muting

\n/ - tremolo bar dip; n = amount to dip

\n - tremolo bar down

n/ - tremolo bar up

/n\ - tremolo bar inverted dip

= - hold bend; also acts as connecting device for hammers/pulls

<> - volume swell (louder/softer)

x - on rhythm slash represents muted slash

o - on rhythm slash represents single note slash

 

Misc Legend

-----------

| - bar

|| - double bar

||o - repeat start

o|| - repeat end

*| - double bar (ending)

: - bar (freetime)

$ - Segno

& - Coda

Tempo markers - = BPM(8/16=s8/s16), where s8 = swing 8ths, s16 = swing 16ths

Return to my Bad Religion Guitar Tabs page

The Tablature is Copyright its respective owners.

Sign Up For My Newsletter
Subscribe | Unsubscribe

Site Map | Disclaimer | Privacy Policy | Media Kit | Submissions/Corrections

Website © 2000-2014 mattsmusicpage.com. All rights reserved.

Legal & DMCA: Matt's Music Page has been providing lyrics and tabs in a legal way, paying royalties each year to a few organizations. Then, all lyrics and tabs were removed from the site. Now, there's a new owner to the site, which purchased it August 26, 2014, and he is in negotiation to obtain licensing from BMI at the moment. If you have a specific DMCA request -- please do not hesitate to contact me via the contact button on top. I will do my very best to keep this site fully legal.

Get our toolbar!

 

V. Horowitz .. Rare Red Vinyl 45 rpm BOX SET OF LISZT .. RCA WDM 1534 NM/NM-
$6.0
 V. Horowitz .. Rare Red Vinyl 45 rpm BOX SET OF LISZT .. RCA WDM 1534 NM/NM- picture


Vintage BUDWEISER BEER Wooden Crate Storage for 12" Vinyl Records Advertising
$49.99
Vintage BUDWEISER BEER Wooden Crate Storage for 12


WALT DISNEY WORLD EPCOT CENTER VOICES OF LIBERTY record album LP vinyl
$9.0
WALT DISNEY WORLD EPCOT CENTER  VOICES OF LIBERTY record album LP vinyl picture


ORIGINAL 1964-vintage (W.S.Myers Assoc) "ILIKAI Hotel" Vinyl-Record~EP ~w/SLEEVE
$3.0
ORIGINAL 1964-vintage (W.S.Myers Assoc)


The Jets-Crush On You - 12" MCA Records Vinyl
$5.0
The Jets-Crush On You - 12