Your One-Stop Source For
Music Lyrics
Bass and Guitar Tabs
and More...
Music Lyrics Bass and Guitar Tabs

 

The Tabs Are Below

Learn To Read Tab
Chords Handbook
Corrections & Additions
Get Official Tab
Bad Religion tabs @ 911Tabs

STRANGE DENIAL

 

(there is a correction to this at the end of the page)

 

TRANSCRIPTION BY JUAN M. CORONEL (From Argentina)

Corrections, insults, comments, I have not email before 20/11/99, so...

If you send me corrections, you have me envy. 002269275@ciudad.com.ar

If you send tabs to this page, please make an effort a little more, vago.

PS: CHUHUEVO UN PAME!!!!!!

--------------------------------------------------------------------------

(INTRO(TABS AT THE END))

 

B

A mutinous enemy

F#

carved a nascent country

G

Sweat, blood, and valor

D A D A

Forms the grit of our history

 

 

B

Bequeathed to everyone:

F#

Chance and free expression

G

Substance was restrained

D A D A

And the spirit was broken

 

 

B F# G D A

I feel a strange denial

B F#

Rhythmic as change

G A

Constant as time

B F#

Lonely

G D A

Insistent whispers

B F# G

Somber as a wave bye bye

D A

Bye bye...

 

 

B F#

Searching for solution, without constitution

G

Black coats by our sides

D D A D A

Promising salvation

B F#

Advocating dogma as tickets to hereafter

G

Mortals in their prime

D A D

With their desperate hands in the air

 

 

B F#

Daunting

G D A

Complex and burning

B F#

Rhythmic as change

G A

Constant as time

B F#

Conflicts

G D A

Craving approval

B F# G

Weighted as a murder trial

G A

Oh I feel a strange denial

 

 

(SOLO1(TABS DOWN))

(SOLO2(TABS MORE ABAJO))

 

B

Correct is consensus

F#

Everything else, nonsense

G

Forward is the hope

D A D A

Forget recompe-ense

B F#

Peace and tranquility is only for the wealthy

G

Dearth for the masses

D A D A

And inequality

 

 

B F# G D A

I feel a strange denial

B F#

Rhythmic as change

G A

Constant as time

B F#

Lonely

G D A

Insistent whispers

B F# G

Dissipating in the night

G A B

Like a lone forgotten light

 

(w/INTRO Y SOLO1)

 

B A B

And no one is helping me

A

It's a strange denial

----------------------------------------------------------------------------

INTRO:

 

 

B A G A

E--------------------------||----------------||-------------------------

B--------------------------||----------------||-------------------------

G---S----------------------||----------------||-------------------------

D--2-4-4-4-4-4-2-----------||-%-----%------%-||---2-4-4-4-4-4-2---------

A----------------5-4-0-----||----------------||-----------------5-4-0---

E--------------------------||----------------||-------------------------

 

 

B F#

E--------------------------------------

B--------------------------------------

G--------------------------------------

D---S----------------------------------

A--2-4-2-2-2-2-2--2--4-5-4-5-4-5-4-5---

E--------------------------------------

----------------------------------------------------------------------------

CHORUS, REFRAIN, SOMETHING THAT:

 

GTR1

B F# G D A B F# G A

E----------------------------||-------------------------------

B----------------------------||-------------------------------

G--4-2-4---------------------||--4-2-4------------------------

D--------2-4--5--7-7-7-------||--------2-4--5-5-5--7-7-7------

A----------4--5--5-5-7-------||----------4--5-5-5--7-7-7------

E----------2--3------5-------||----------2--3-3-3--5-5-5------

 

 

GTR2

B F# G D A B F# G A

E----------------------------||-------------------------------

B--3-2-----------------------||--3-2--------------------------

G------4-2-------------------||------4-2----------------------

D----------4--5--7-7-7-------||----------4--5-5-5--7-7-7------

A-------------5--5-5-7-------||-------------5-5-5--7-7-7------

E-------------3------5-------||-------------3-3-3--5-5-5------

 

----------------------------------------------------------------------------

 

SOLO 1:

 

B A B A

E--7---------------------||-7------------------------

B----7----S--------------||---7----S---------S-------

G------7-7-9--7--7-7^6-6-||-----7-7-9--7--7-7-9------

D--------9-11----9-9^7-7-||-------9-11-9--9-9--------

A------------------------||--------------------------

E------------------------||--------------------------

 

G A B F#

S S

E--7-----10---10-10^9--9--9----9-7-7--7--9-10-10-12-10-9-10-9--

B----7------7-12-12^10-10---10---------------------------------

G------7-------------------------------------------------------

D--------------------------------------------------------------

A--------------------------------------------------------------

E--------------------------------------------------------------

 

----------------------------------------------------------------------------

 

SOLO 2:

 

B A

E-----------7-------------------7-----10------12--------------

B--7------7---10^(12)^(10)^(12)---10^(12)-12^(14)-(14)--------

G--9^(11)-----------------------------------------------------

D-------------------------------------------------------------CONT.

A-------------------------------------------------------------

E-------------------------------------------------------------

 

 

B A

E--------------------12^10-12^10--9^10-9^10--------------------

B--14^(15)^(14)^(15)------------------------10^(12)^(10)-10-\--

G--------------------------------------------------------------

D--------------------------------------------------------------CONT.

A--------------------------------------------------------------

E--------------------------------------------------------------

 

 

G A

E----------------------------------------------------------

B--10^(12)^(10)--------------------------------------------

G---------------11--9^(11)^(9)-7^6-7^6-4^6^4---------------

D----------------------------------------------------------CONT.

A----------------------------------------------------------

E----------------------------------------------------------

 

 

B F#

E-----7--------------------------------------------

B---------7-10^(12)^(10)---------------------------

G--9^(11)----------------7-9^(11)^(9)-7-9^(11)-----

D--------------------------------------------------

A--------------------------------------------------

E--------------------------------------------------

 

 

(this was received a few weeks later - Roger)

 

 

This is a correction of my previous transcription.

I’m for sure this also has errors, but...

 

----------------------------------------------------------------------------

SOLO 2:

 

B A

E-----------7--------------7-----10------12--------------

B---------7---10^(12)^(10)---10^(12)-12^(14)-(14)--------

G--9^(11)------------------------------------------------

D--------------------------------------------------------CONT.

A--------------------------------------------------------

E--------------------------------------------------------

 

 

B A

E--9^10-9^10-12^10-12^10-9^10-9^10---------------------

B-----------------------------------10^(12)^(10)-10-\--

G------------------------------------------------------

D------------------------------------------------------CONT.

A------------------------------------------------------

E------------------------------------------------------

 

 

G A

E----------------------------------------------------------

B--10^(12)^(10)--------------------------------------------

G---------------11--9^(11)^(9)-7^6-7^6-4^6^4---------------

D----------------------------------------------------------CONT.

A----------------------------------------------------------

E----------------------------------------------------------

 

 

B F#

E-----7--------------------------------------------

B---------7-10^(12)^(10)---------------------------

G--9^(11)----------------7-9^(11)^(9)-7-9^(11)-----

D--------------------------------------------------

A--------------------------------------------------

E--------------------------------------------------

 

CHUHUEVOUNPAME!!!!!!!!!!!!!!!

 

 

Return to my Bad Religion tabs page

The Tablature is Copyright its respective owners.

Sign Up For My Newsletter
Subscribe | Unsubscribe

Site Map | Disclaimer | Privacy Policy | Media Kit | Submissions/Corrections

Website © 2000-2014 mattsmusicpage.com. All rights reserved.

Legal & DMCA: Matt's Music Page has been providing lyrics and tabs in a legal way, paying royalties each year to a few organizations. Then, all lyrics and tabs were removed from the site. Now, there's a new owner to the site, which purchased it August 26, 2014, and he is in negotiation to obtain licensing from BMI at the moment. If you have a specific DMCA request -- please do not hesitate to contact me via the contact button on top. I will do my very best to keep this site fully legal.

Get our toolbar!