Your One-Stop Source For
Music Lyrics
Bass and Guitar Tabs
and More...
>Music Lyrics Bass and Guitar Tabs

 

The Tabs Are Below

Learn To Read Tab
Chords Handbook
Corrections & Additions
Get Official Tab
Bad Religion tabs @ 911Tabs

Sorrow - Bad Religion

-------------------------------------------------------------------------------

 

Tabbed by Patrick Dawson (wcdawson@optonline.net)

 

[Lowercase letters denote two-string powerchords]

 

The first E in the intro and both verses is LOW (022xxx).

The rest are HIGH (x799xx).

 

INTRO:

 

G|-12-

B|-12-

e|-12-

 

(p.m.) eeee cccc dddd gggg gggg gggg gggg

(p.m.) gggg cccc eeee dddd dddd dddd dddd

(p.m.) gggg cccc dddd eeee eeee eeee eeee

(p.m.) eeee cccc

(no pm) dddd GGGG GGGG GGGG G F#

 

 

VERSE 1: (same pattern as intro, but accent on 3rd)

E C D G

G C E D

G C D E

E C D G

G F#

 

VERSE 2/3:

E C D G

G C E D

G C D E

E C D

 

CHORUS:

"sorrow"

D G

E|-3---3-0-------------

A|---5---------5--10---

D|-------------7--12---

G|-------------7--12---

 

"sorrow"

E D

E|-3---3-0------------

A|---5---------7--5---

D|-------------9--7---

G|-------------9--7---

 

"sorrow no more"

D G E DDD D DDD D DDD D DDD D G

E|-3---3-0---------------------------------------3...

A|---5---------5--10-7--555-5-555-5-555-5-555-5--5...

D|-------------7--12-9--777-7-777-7-777-7-777-7--5...

G|-------------7--12-9--777-7-777-7-777-7-777-7---

 

(pick slide after 1st chorus only)

 

SOLO:

(chords played during the solo are exactly the same as VERSE 2/3)

 

 

E|-----------------------------------------------------------------------------------------------------|

A|-------------------------------------------------14--------------------------------------------------|

D|---------------------14--14-12--12-14---------------12-14-----14--12h14-12h14-12h14-12-14-12-12h14---|

G|-14b16-----14b16--12----12------------12-14-12------------12b----------------------------------------|

B|-12--------12----------------------------------------------------------------------------------------|

e|-----------------------------------------------------------------------------------------------------|

 

E|-----------------------------------------------------------------------------------------------------|

A|------------14---------------------------------------------------------------------------------------|

D|-12h14p12------12-14----14---------------------------------------------------------------------------|

G|---------------------12----12-14-12----12-12-12h14---------------------14-12-14-12-14b---------------|

B|----------------------------------------------------13-15-13-12-13p12--------------------------------|

e|-----------------------------------------------------------------------------------------------------|

 

E|-----------------------------------------------------------------------------------------------------|

A|-----------------------------------------------------------------------------------------------------|

D|----------------14-12--------------------------------------------------------------------------------|

G|-14b------14-12-------14b15b14r12-14p12--------------------------------------------------------------|

B|----12--12-------------------------------------------------------------------------------------------|

e|------12---------------------------------------------------------------------------------------------|

 

 

OUTRO:

E (high)

 

 

 

Return to my Bad Religion tabs page

The Tablature is Copyright its respective owners.

Sign Up For My Newsletter
Subscribe | Unsubscribe

Site Map | Disclaimer | Privacy Policy | Media Kit | Submissions/Corrections

Website © 2000-2014 mattsmusicpage.com. All rights reserved.

Legal & DMCA: Matt's Music Page has been providing lyrics and tabs in a legal way, paying royalties each year to a few organizations. Then, all lyrics and tabs were removed from the site. Now, there's a new owner to the site, which purchased it August 26, 2014, and he is in negotiation to obtain licensing from BMI at the moment. If you have a specific DMCA request -- please do not hesitate to contact me via the contact button on top. I will do my very best to keep this site fully legal.

Get our toolbar!

 

BONE CRUSHER GRIPPIN THE GRAIN SO SO DEF ARISTA RECORDS VINYL 12"
$0.79
BONE CRUSHER GRIPPIN THE GRAIN SO SO DEF ARISTA RECORDS VINYL  12


ANN NESBY LET YOUR WILL BE DONE UNIVERSAL RECORDS VINYL 12"
$0.49
ANN NESBY LET YOUR WILL BE DONE UNIVERSAL RECORDS  VINYL  12


LOLEATTA HOLLOWAY CRASH GOES LOVE PROMO STREETWISE RECORDS VINYL 12"
$0.89
LOLEATTA HOLLOWAY CRASH GOES LOVE PROMO STREETWISE RECORDS VINYL  12


Vintage Disney Tale Spinners Vinyl Record Album CINDERELLA
$8.5
 Vintage Disney Tale Spinners Vinyl Record Album CINDERELLA  picture


Vintage Collectible 1977 Donny & Marie Osmond 45 Record Vinyl Box W/ 16 Records.
$9.99
Vintage Collectible 1977 Donny & Marie Osmond 45 Record Vinyl Box W/ 16 Records. picture