Your One-Stop Source For
Music Lyrics
Bass and Guitar Tabs
and More...
Music Lyrics Bass and Guitar Tabs

 

The Tabs Are Below

Learn To Read Tab
Chords Handbook
Corrections & Additions
Get Official Tab
Bad Religion tabs @ 911Tabs

Silent Night

Ryan

d95mr@causeway.infc.ulst.ac.uk

 

(From The "Christmas Show" Bootleg)

 

Tune Down 1/2 Step (Eb, Ab, Db, Gb, Bb, Eb)

 

I'm not too sure about the chords being played over the verse

sections. The quality at the start of the bootleg is quite muddy, so

it's quite difficult to hear exactly what's being played... There's

definitely a D chord in there (sounds half step flat - C#) and I'm

almost positively sure there's an A chord in there as well... Just

screw around with it, and see what works best for you...

 

Oh, Yeah... Have fun!

 

*** Song Structure ***

Gtr1 Gtr2 Gtr1 Gtr2

------------ ------------ ------------ ------------

Intro Break 2

Riff A1 (x2) Riff A1 (x2) Riff G1 (x2) ------

Riff A2 (x2) Riff A2 (x2) Riff G1 (x2) Riff G2 (x2)

Riff B (x3) Riff C1 (x3) Riff G1 (x2) Riff G1 (x2)

Riff B Riff C2 Riff B Riff B

 

Verse 1 Verse 3

Riff D Riff D Same As V1,2

Riff E Riff E

Riff D Riff D Break 3

Riff E Riff E Gtrs out - 4 Bars Of Drums

Riff D Riff D Riff H1 (x2) Riff H2 (x2)

Riff E Riff E

Verse 4

Break 1 Same As V1,2,3

Riff F1 (x3) Riff F1 (x3)

Riff F2 Riff 2 Outro

Riff A1 (x2) Riff A1 (x2)

Verse 2 Riff A2 Riff A2

Same As V1 Riff A3 Riff A3

 

 

*** Riffs ***

Riff A1 End Riff A1 Riff A2 End Riff

A2

|---------------------------------| |---------------------------------|

|-------------------------8-------| |---------8---------------8-------|

|-------------------------7-------| |---------7---------------7-------|

|-7---7---7---7---7---7---5-------| |-7---7---5-------7---7---5-------|

|-5---5---5---5---5---5-----------| |-5---5-----------5---5-----------|

|---------------------------------| |---------------------------------|

pm-------------------| pm---| pm---|

 

Riff A3 End Riff A3 Riff B End Riff

B

|--------------------------------|| |---------------------------------|

|---------8-\-\-\----------------|| |---------------------------------|

|---------7-\-\-\----------------|| |-7---7---7---7---7---7---7---7---|

|-7---7---5-\-\-\----------------|| |-7---7---7---7---7---7---7---7---|

|-5---5----(Slide)---------------|| |-5---5---5---5---5---5---5---5---|

|--------------------------------|| |---------------------------------|

pm---|

 

Riff C1 End Riff C1 Riff C2 End Riff C2

|---------------------------------| |---------------------------------|

|---------------------------------| |---------------------------------|

|-7--------------(7)--------------| |-7---------(Long PickSlide)------|

|-7--------------(7)--------------| |-7-------x-\-\-\-\-\-\-\-\-\-\---|

|-5--------------(5)--------------| |-5-------x-\-\-\-\-\-\-\-\-\-\---|

|---------------------------------| |---------------------------------|

 

 

Riff D End Riff D

|---------------------------------|---------------------------------|

|---------------------------------|---------------------------------|

|-7---7---7---7---7---7---7---7---|-7---7---7---7---7---7---7---7---|

|-7---7---7---7---7---7---7---7---|-7---7---7---7---7---7---7---7---|

|-5---5---5---5---5---5---5---5---|-5---5---5---5---5---5---5---5---|

|---------------------------------|---------------------------------|

 

 

Riff E End Riff E

|---------------------------------|---------------------------------|

|---------------------------------|---------------------------------|

|---------------------------------|---------------------------------|

|-7---7---7---7---7---7---7---7---|-7---7---7---7---7---7---7---7---|

|-7---7---7---7---7---7---7---7---|-7---7---7---7---7---7---7---7---|

|-5---5---5---5---5---5---5---5---|-5---5---5---5---5---5---5---5---|

 

 

Riff F1 End Riff F1 Riff F2 End Riff F2

|---------------------------------| |---------------------------------|

|---------------------------------| |---------------------------------|

|-6/7-7-7-6/7-7-7-6/7-7-----------| |-6/7-7-7---------6/7-7-7---------|

|-6/7-7-7-6/7-7-7-6/7-7---5---4---| |-6/7-7-7-7-7-7---6/7-7-7-7-7-7---|

|-4/5-5-5-4/5-5-5-4/5-5---5---4---| |-4/5-5-5-5-5-5---4/5-5-5-5-5-5---|

|-------------------------3---2---| |---------------------------------|

pm---| pm---|

 

Riff G1 End Riff G1 Riff G2 End Riff G2

|---------------------------------| |---------------------------------|

|-------8---------------6---------| |---------------------------------|

|-7-7-7-7---7-7---5-5-5-5---5-5---| |-7------7--------7-------7-------|

|-7-7-7-5---7-7---5-5-5-3---5-5---| |-7------7--------7-------7-------|

|-5-5-5-----5-5---3-3-3-----3-3---| |-5------5--------5-------5-------|

|---------------------------------| |---------------------------------|

 

 

Riff H1 End Riff H1

|---------------------------------|---------------------------------|

|---------------------------------|---------------------------------|

|-----------------7-----7---------|-----------------7---------------|

|---------------------7-----------|---------------------5---3-5-3---|

|-4---4/5-5-5---5---------5-5-5---|-4---4/5-5-5---5-----5---3-5-3---|

|---------------------------------|---------------------3---1-3-1---|

pm---|

 

Riff H2 End Riff H2

|---------------------------------|---------------------------------|

|---------------------------------|---------------------------------|

|-6---6/7-7------(7)--------------|-6---6/7-7------(7)--------------|

|-6---6/7-7------(7)--------------|-6---6/7-7------(7)--5---3-5-3---|

|-4---4/5-5------(5)--------------|-4---4/5-5------(5)--5---3-5-3---|

|---------------------------------|---------------------3---1-3-1---|

(Don't play this bar 1st time) pm---|

 

 

Return to my Bad Religion tabs page

The Tablature is Copyright its respective owners.

Sign Up For My Newsletter
Subscribe | Unsubscribe

Site Map | Disclaimer | Privacy Policy | Media Kit | Submissions/Corrections

Website © 2000-2014 mattsmusicpage.com. All rights reserved.

Legal & DMCA: Matt's Music Page has been providing lyrics and tabs in a legal way, paying royalties each year to a few organizations. Then, all lyrics and tabs were removed from the site. Now, there's a new owner to the site, which purchased it August 26, 2014, and he is in negotiation to obtain licensing from BMI at the moment. If you have a specific DMCA request -- please do not hesitate to contact me via the contact button on top. I will do my very best to keep this site fully legal.

Get our toolbar!