Your One-Stop Source For
Music Lyrics
Bass and Guitar Tabs
and More...
>Music Lyrics Bass and Guitar Tabs

 

The Tabs Are Below

Learn To Read Tab
Chords Handbook
Corrections & Additions
Get Official Tab
Bad Religion tabs @ 911Tabs

Shattered Faith - Bad Religion

-------------------------------------------------------------------------------

Album: Import of 'The Process Of Belief'

 

Tabbed by Michael Kulachkosky

fire_inside@hotmail.com

 

I won't provide the all of the lyrics, just the main ones to let you know what to play and when to play it. Here goes.

 

INTRO

Guitar 1 - Lead Guitar

E:-------------------------------------------------------------------------

B:-------------------------------------------------------------------------

G:-10-1010-9999--77777799--1010-10--9999--77777799--5-555555555--10\9-5----

D:-------------------------------------------------------------------------

A:-8--8-8--7777--55555577--8--8-8---7777--55555577--3-333333333--8 \7-3----

E:-------------------------------------------------------------------------

 

Guitar 2 - Rhthym

E:----------------------------------------------

B:----------------------------------------------

G:--7*------10*---------------------------------

D:--7*--8*--10*--10*----------------------------

A:--5*--8*--8 *--10*----------------------------

E:------6*-------8 *----------------------------

 

Guitar 3 - Rhthym

 

E:----------------------------------------------

B:----------------------------------------------

G:--7*------------------------------------------

D:--7*--8*--3*--10*-----------------------------

A:--5*--8*--3*--10*-----------------------------

E:------6*--1*--8 *-----------------------------

 

Palm Muting

E:----------------

B:----------------

G:--2*------------

D:--2*------------

A:--0*------------

E:----------------

 

VERSE Riff (both Guitars, except in intro) (The scientist purported that there ain't no purpose...)

E:----------------------------------------------

B:----------------------------------------------

G:--77777-----------555-------------------------

D:--77777-888-33333-555-------------------------

A:--55555-888-33333-333-------------------------

E:--------666-11111-----------------------------

 

Verse RiffB - Guitar 1 - (...Trying to maintain objectivity...)

E:----------------------------------------------

B:----------------------------------------------

G:----------------------------------------------

D:----------------------------------------------

A:-1-1-0-0---------1^3---3----------------------

E:---------3-3-1^0------------------------------

 

Verse RiffB - Guitar 2 - (note: If anything is wrong in this tab, it is this part....sorry..)

E:----------------------------------------------

B:----------------------------------------------

G:-3*----------------5*-------------------------

D:-3*----------------5*-------------------------

A:-1*----------------3*-------------------------

E:----------------------------------------------

 

 

Repeat this until chorus

 

Chorus (Born of the Earth...)

Lead

E:----------------------------------------------------------------------------------

B:----------------------------------------------------------------------------------

G:-10-1010-9999--77777799--1010-10--9999--77777799--5-555555555--10\9-5-5555555556--

D:----------------------------------------------------------------------------------repeat

A:-8--8-8--7777--55555577--8--8-8---7777--55555577--3-333333333--8 \7-3-3333333334--

E:----------------------------------------------------------------------------------

 

Guitar 1

E:----------------------------------------------

B:----------------------------------------------

G:--7*------10*---------------------------------

D:--7*--8*--10*--10*----------------------------

A:--5*--8*--8 *--10*----------------------------

E:------6*-------8 *----------------------------

 

Guitar 2

E:----------------------------------------------

B:----------------------------------------------

G:--7*------------------------------------------

D:--7*--8*--3*--10*-----------------------------

A:--5*--8*--3*--10*-----------------------------

E:------6*--1*--8 *-----------------------------

 

Palm Muting (Life begins when you accept your fate!)

E:----------------

B:----------------

G:--2*------------

D:--2*------------

A:--0*------------

E:----------------

 

Then repeat the beginning stuff.

 

After the second chorus, do the followed breakdown part (with bass guitar doing main chords)

Palm Muting

E:----------------

B:----------------

G:--7-7-7-7-------

D:--0-0-0-0-------

A:----------------

E:----------------

 

When the vocals come in, start palm muting this..(right or wrong, the main criterion...)

E:----------------------------------------------

B:----------------------------------------------

G:----------------------------------------------

D:--77777-----------555-------------------------

A:--55555-888-33333-333-------------------------

E:--------666-11111-----------------------------

 

Then stop palm muting and doing this part again (the method is a simple synthesis of the past, and present state)

E:----------------------------------------------

B:----------------------------------(end)-------

G:--77777-----------555--------------2*---------

D:--77777-888-33333-555--------------2*---------

A:--55555-888-33333-333--------------0*---------

E:--------666-11111-----------------------------

 

"I had a dream..." (STRUM, don't nail)

E:--------------------

B:--7--3-----5----5---

G:--7--3--2--5----5---

D:--7--3--3--5----5---

A:--5--1--3--3----3---

E:--------1-----------

 

"But I won't run in place..."

Guitar 1

E:----------------------------------------------

B:----------------------------------------------

G:--7*------10*---------------------------------

D:--7*--8*--10*--10*----------------------------

A:--5*--8*--8 *--10*----------------------------

E:------6*-------8 *----------------------------

 

Guitar 2

E:----------------------------------------------

B:----------------------------------------------

G:--7*------------------------------------------

D:--7*--8*--3*--10*-----------------------------

A:--5*--8*--3*--10*-----------------------------

E:------6*--1*--8 *-----------------------------

 

When vocals stop, the Lead Guitar comes in again with the Chorus Lead part

E:----------------------------------------------------------------------------------

B:----------------------------------------------------------------------------------

G:-10-1010-9999--77777799--1010-10--9999--77777799--5-555555555--10\9-5-5555555556--

D:----------------------------------------------------------------------------------repeat

A:-8--8-8--7777--55555577--8--8-8---7777--55555577--3-333333333--8 \7-3-3333333334--

E:----------------------------------------------------------------------------------

 

Any Corrections or junk, email me at fire_inside@hotmail.com

Comments are appreciated. Thanks to marko for help with Verse RiffB.

 

 

 

Return to my Bad Religion tabs page

The Tablature is Copyright its respective owners.

Sign Up For My Newsletter
Subscribe | Unsubscribe

Site Map | Disclaimer | Privacy Policy | Media Kit | Submissions/Corrections

Website © 2000-2014 mattsmusicpage.com. All rights reserved.

Legal & DMCA: Matt's Music Page has been providing lyrics and tabs in a legal way, paying royalties each year to a few organizations. Then, all lyrics and tabs were removed from the site. Now, there's a new owner to the site, which purchased it August 26, 2014, and he is in negotiation to obtain licensing from BMI at the moment. If you have a specific DMCA request -- please do not hesitate to contact me via the contact button on top. I will do my very best to keep this site fully legal.

Get our toolbar!

 

ALESSI : Harmonica Melodic Tea Kettle 2 ltr / Richard Sapper
$109.9
ALESSI : Harmonica Melodic Tea Kettle 2 ltr / Richard Sapper  picture


harmonica, BLESSINGS vintage, flower and fish etched, made in China
$1.99
harmonica,  BLESSINGS vintage, flower and fish etched, made in China  picture


MINT 1984 TOM CLARK SIGNED GNOME JOHNNY SHELF SITTER HARMONICA #34
$14.99
MINT 1984 TOM CLARK SIGNED GNOME JOHNNY SHELF SITTER HARMONICA #34 picture


NEW HOHNER 109 LITTLE LADY HARMONICA WITH KEY RING C LITTLELADY HARP
$19.04
NEW HOHNER 109 LITTLE LADY HARMONICA WITH KEY RING C LITTLELADY HARP picture


BRAND NEW HOHNER ECHO C HARMONICA HARP 2309/32 20 DOUBLE HOLE 32 REED TREMOLO
$67.76
BRAND NEW HOHNER ECHO C HARMONICA HARP 2309/32 20 DOUBLE HOLE 32 REED TREMOLO picture