Your One-Stop Source For
Music Lyrics
Bass and Guitar Tabs
and More...
Music Lyrics Bass and Guitar Tabs

 

The Bad Religion Tabs Are Below

Learn To Read Tab
Chords Handbook
Corrections & Additions
Get Official Tab
Bad Religion tabs @ 911Tabs

SCRUTINY

As recorded by Bad Religion

(From the 2007 Album NEW MAPS OF HELL)

 

Transcribed by Whoabot

 

 

Words and Music by Bad Religion

Arranged by Bad Religion

 

Gtr I (E A D G B E) - 'Untitled'

Gtr II (E A D G B E) - 'Untitled'

Gtr III (E A D G B E) - 'Pickscrape Noise (MIDI Only)'

 

Intro

Q=154

C5

4/4

Gtr I

~~ ~ ~

Q. E Q Q Q. E Q +Q

|-------------------|----------------------|

|-----------4-------|----------------------|

|-5-------6-----6---|-5---------5---(5)\---|

|-------------------|---------5------------|

|-------------------|----------------------|

|-------------------|----------------------|

|

| Gtr II

| E S E. E E E E E E S E. E E E E E

|-------------------|----------------------|

|-------------------|----------------------|

|-------------------|----------------------|

|-5--5-5--5-5-5-5-5-|-5--5-5--5-5-5--5---5-|

|-3--3-3--3-3-3-3-3-|-3--3-3--3-3-3--3---3-|

|-------------------|----------------------|

 

 

>

~~~ ~~~~~~~~~~~

Q. E Q Q H H

|--------------------|-----------------||

|------------4---6---|-8--------8------||

|-/5-------6---------|-----------------||

|--------------------|-----------------||

|--------------------|-----------------||

|--------------------|-----------------||

|

| E S E. E E E E E E S E. E q Q

|--------------------|-----------------||

|--------------------|-----------------||

|--------------------|-----------------||

|--5--5-5--5-5-5-5-5-|-5-5-5--5-5------||

|--3--3-3--3-3-3-3-3-|-3-3-3--3-3------||

|--------------------|-----------------||

 

 

Verse

D5 F5 C5

E S E.E E E q E S E.E E E q E S E S E E S E S E E S E S E E S E S E

|----------------|----------------|---------------------|---------------------|

|-6-6-6p5-6p5-6--|-6-6-6p5-6p5-6--|---------------------|---------------------|

|-7-7-7p5-7p5-7--|-7-7-7p5-7p5-7--|---------------------|-5-5-5-5-5-5-5-5-5-5-|

|----------------|----------------|-3-3-3-3-3-3-3-3-3-3-|-5-5-5-5-5-5-5-5-5-5-|

|----------------|----------------|-3-3-3-3-3-3-3-3-3-3-|-3-3-3-3-3-3-3-3-3-3-|

|----------------|----------------|-1-1-1-1-1-1-1-1-1-1-|---------------------|

|

| E S E.E E E q E S E.E E E q E S E S E E S E S E E S E S E E S E S E

|----------------|----------------|---------------------|---------------------|

|----------------|----------------|---------------------|---------------------|

|----------------|----------------|---------------------|---------------------|

|-7-7-7-7-7-7-7--|-7-7-7-7-7-7-7--|---------------------|-5-5-5-5-5-5-5-5-5-5-|

|-5-5-5-5-5-5-5--|-5-5-5-5-5-5-5--|-3-3-3-3-3-3-3-3-3-3-|-3-3-3-3-3-3-3-3-3-3-|

|----------------|----------------|-1-1-1-1-1-1-1-1-1-1-|---------------------|

 

 

D5

E S E.E E E q E S E.E E E q

|----------------|----------------|

|-6-6-6p5-6p5-6--|-6-6-6p5-6p5-6--|

|-7-7-7p5-7p5-7--|-7-7-7p5-7p5-7--|

|----------------|----------------|

|----------------|----------------|

|----------------|----------------|

|

| E S E.E E E q E S E.E E E q

|----------------|----------------|

|----------------|----------------|

|----------------|----------------|

|-7-7-7-7-7-7-7--|-7-7-7-7-7-7-7--|

|-5-5-5-5-5-5-5--|-5-5-5-5-5-5-5--|

|----------------|----------------|

 

 

Bb5 C5

E S E S E E S E S E E S S S S E E S E S E

|---------------------|------------------------||

|---------------------|------------------------||

|-3-3-3-3-3-3-3-3-3-3-|-5-5-5-5-5-5-5-5-5-5-5--||

|-3-3-3-3-3-3-3-3-3-3-|-5-5-5-5-5-5-5-5-5-5-5--||

|-1-1-1-1-1-1-1-1-1-1-|-3-3-3-3-3-3-3-3-3-3-3--||

|---------------------|------------------------||

|

| E S E S E E S E S E E S S S S E E S E S E

|---------------------|------------------------||

|---------------------|------------------------||

|---------------------|------------------------||

|-3-3-3-3-3-3-3-3-3-3-|-5-5-5-5-5-5-5-5-5-5-5--||

|-1-1-1-1-1-1-1-1-1-1-|-3-3-3-3-3-3-3-3-3-3-3--||

|---------------------|------------------------||

 

 

Pre-Chorus

Dm C5 Bb5

Gtrs I, II

E S E S E E E E E E S E S E E S E S E

|---------------------------------|---------------------|

|-(6)-(6)-(6)-(6)-(6)-(6)-(6)-----|---------------------|

|--7---7---7---7---7---7---7--5-5-|-3-3-3-3-3-3-3-3-3-3-|

|--7---7---7---7---7---7---7--5-5-|-3-3-3-3-3-3-3-3-3-3-|

|--5---5---5---5---5---5---5--3-3-|-1-1-1-1-1-1-1-1-1-1-|

|---------------------------------|---------------------|

 

 

F5 C5

E S E S E E S E S E E S E S E E S E S E

|---------------------|-----------------------|

|---------------------|-----------------------|

|---------------------|-5-5-5-5-5-5-5-5-5-5---|

|-3-3-3-3-3-3-3-3-3-3-|-5-5-5-5-5-5-5-5-5-5---|

|-3-3-3-3-3-3-3-3-3-3-|-3-3-3-3-3-3-3-3-3-3---|

|-1-1-1-1-1-1-1-1-1-1-|-----------------------|

 

 

D5 Bb5 F5 C5 D5 N.C.

Gtr III

\7

TP

E S E S E E S E S E E S E S E E S E S E E S E S E E S E S E W

|---------------------|---------------------|---------------------|-------||

|---------------------|---------------------|---------------------|-------||

|-7-7-7-7-7-3-3-3-3-3-|-----------5-5-5-5-5-|-7-7-7-7-7-7-7-7-7-7-|-x-----||

|-7-7-7-7-7-3-3-3-3-3-|-3-3-3-3-3-5-5-5-5-5-|-7-7-7-7-7-7-7-7-7-7-|-x-----||

|-5-5-5-5-5-1-1-1-1-1-|-3-3-3-3-3-3-3-3-3-3-|-5-5-5-5-5-5-5-5-5-5-|-x-----||

|---------------------|-1-1-1-1-1-----------|---------------------|-------||

 

 

Chorus

Bb5 F5 C5 Dm

Gtrs I, II

E S E S E E S E S E E S E S E E S E S E

||----------------------|----------------------||

||o---------------------|-----------6-6-6-6-6-o||

||--3-3-3-3-3-----------|-5-5-5-5-5-7-7-7-7-7--||

||--3-3-3-3-3-3-3-3-3-3-|-5-5-5-5-5-7-7-7-7-7--||

||o-1-1-1-1-1-3-3-3-3-3-|-3-3-3-3-3-5-5-5-5-5-o||

||------------1-1-1-1-1-|----------------------||

 

 

Bb5 F5 C5 Dm

E S E S E E S E S E E S E S E E S E S E

|---------------------|---------------------|

|---------------------|-----------6-6-6-6-6-|

|-3-3-3-3-3-----------|-5-5-5-5-5-7-7-7-7-7-|

|-3-3-3-3-3-3-3-3-3-3-|-5-5-5-5-5-7-7-7-7-7-|

|-1-1-1-1-1-3-3-3-3-3-|-3-3-3-3-3-5-5-5-5-5-|

|-----------1-1-1-1-1-|---------------------|

 

 

A Bb5 C5 Bb5 F5 Db5

Gtr I

PM----------| PM----------|

E E E E E E E E Q E E Q E E E E E E E E E E Q E E Q E E

|-----------------|---------------|-----------------|-------------------||

|-2---------------|---------------|-----------------|-------------------||

|-2---------------|-3------5------|-3---------------|-/10--------6--6-6-||

|-2-2-2-2-2-2-2-2-|-3--3-3-5--5-5-|-3-3-3-3-3-3-3-3-|-/10--10-10-6--6-6-||

|-0-0-0-0-0-0-0-0-|-1--1-1-3--3-3-|-1-1-1-1-1-1-1-1-|--/8---8--8-4--4-4-||

|-----------------|---------------|-----------------|-------------------||

|

| Gtr II

| PM----------| PM----------|

| E E E E E E E E H H E E E E E E E E H H

|-----------------|---------------|-----------------|-------------------||

|-2---------------|---------------|-----------------|-------------------||

|-2---------------|-3------5------|-3---------------|--10--------6------||

|-2-2-2-2-2-2-2-2-|-3------5------|-3-3-3-3-3-3-3-3-|--10--------6------||

|-0-0-0-0-0-0-0-0-|-1------3------|-1-1-1-1-1-1-1-1-|---8--------4------||

|-----------------|---------------|-----------------|-------------------||

 

 

Pre-Verse

C5

~~ ~ ~

Q. E Q Q Q. E Q +Q

|-------------------|----------------------|

|-----------4-------|----------------------|

|-5-------6-----6---|-5---------5---(5)\---|

|-------------------|---------5------------|

|-------------------|----------------------|

|-------------------|----------------------|

|

| E S E. E E E E E E S E. E E E E E

|-------------------|----------------------|

|-------------------|----------------------|

|-------------------|----------------------|

|-5--5-5--5-5-5-5-5-|-5--5-5--5-5-5--5---5-|

|-3--3-3--3-3-3-3-3-|-3--3-3--3-3-3--3---3-|

|-------------------|----------------------|

 

 

>

~~~ ~~~~~~~~~~~~~

Q. E Q Q a H +H

|--------------------|----------------------||

|------------4---6---|-6h8--------(8)-------||

|-/5-------6---------|----------------------||

|--------------------|----------------------||

|--------------------|----------------------||

|--------------------|----------------------||

|

| E S E. E E E E E E S E. E E E E E

|--------------------|----------------------||

|--------------------|----------------------||

|--------------------|----------------------||

|--5--5-5--5-5-5-5-5-|---5-5-5--5--5--5-5-5-||

|--3--3-3--3-3-3-3-3-|---3-3-3--3--3--3-3-3-||

|--------------------|----------------------||

 

 

Verse

D5 F5 C5

E S E.E E E q E S E.E E E q E S E S E E S E S E E S E S E E S E S E

|----------------|----------------|---------------------|---------------------|

|-6-6-6p5-6p5-6--|-6-6-6p5-6p5-6--|---------------------|---------------------|

|-7-7-7p5-7p5-7--|-7-7-7p5-7p5-7--|---------------------|-5-5-5-5-5-5-5-5-5-5-|

|----------------|----------------|-3-3-3-3-3-3-3-3-3-3-|-5-5-5-5-5-5-5-5-5-5-|

|----------------|----------------|-3-3-3-3-3-3-3-3-3-3-|-3-3-3-3-3-3-3-3-3-3-|

|----------------|----------------|-1-1-1-1-1-1-1-1-1-1-|---------------------|

|

| E S E.E E E q E S E.E E E q E S E S E E S E S E E S E S E E S E S E

|----------------|----------------|---------------------|---------------------|

|----------------|----------------|---------------------|---------------------|

|----------------|----------------|---------------------|---------------------|

|-7-7-7-7-7-7-7--|-7-7-7-7-7-7-7--|---------------------|-5-5-5-5-5-5-5-5-5-5-|

|-5-5-5-5-5-5-5--|-5-5-5-5-5-5-5--|-3-3-3-3-3-3-3-3-3-3-|-3-3-3-3-3-3-3-3-3-3-|

|----------------|----------------|-1-1-1-1-1-1-1-1-1-1-|---------------------|

 

 

D5

E S E.E E E q E S E.E E E q

|----------------|----------------|

|-6-6-6p5-6p5-6--|-6-6-6p5-6p5-6--|

|-7-7-7p5-7p5-7--|-7-7-7p5-7p5-7--|

|----------------|----------------|

|----------------|----------------|

|----------------|----------------|

|

| E S E.E E E q E S E.E E E q

|----------------|----------------|

|----------------|----------------|

|----------------|----------------|

|-7-7-7-7-7-7-7--|-7-7-7-7-7-7-7--|

|-5-5-5-5-5-5-5--|-5-5-5-5-5-5-5--|

|----------------|----------------|

 

 

Bb5 C5

E S E S E E S E S E E S S S S E E S E S E

|---------------------|------------------------||

|---------------------|------------------------||

|-3-3-3-3-3-3-3-3-3-3-|-5-5-5-5-5-5-5-5-5-5-5--||

|-3-3-3-3-3-3-3-3-3-3-|-5-5-5-5-5-5-5-5-5-5-5--||

|-1-1-1-1-1-1-1-1-1-1-|-3-3-3-3-3-3-3-3-3-3-3--||

|---------------------|------------------------||

|

| E S E S E E S E S E E S S S S E E S E S E

|---------------------|------------------------||

|---------------------|------------------------||

|---------------------|------------------------||

|-3-3-3-3-3-3-3-3-3-3-|-5-5-5-5-5-5-5-5-5-5-5--||

|-1-1-1-1-1-1-1-1-1-1-|-3-3-3-3-3-3-3-3-3-3-3--||

|---------------------|------------------------||

 

 

Pre-Chorus

Dm C5 Bb5

Gtrs I, II

E S E S E E E E E E S E S E E S E S E

|---------------------------------|---------------------|

|-(6)-(6)-(6)-(6)-(6)-(6)-(6)-----|---------------------|

|--7---7---7---7---7---7---7--5-5-|-3-3-3-3-3-3-3-3-3-3-|

|--7---7---7---7---7---7---7--5-5-|-3-3-3-3-3-3-3-3-3-3-|

|--5---5---5---5---5---5---5--3-3-|-1-1-1-1-1-1-1-1-1-1-|

|---------------------------------|---------------------|

 

 

F5 C5

E S E S E E S E S E E S E S E E S E S E

|---------------------|-----------------------|

|---------------------|-----------------------|

|---------------------|-5-5-5-5-5-5-5-5-5-5---|

|-3-3-3-3-3-3-3-3-3-3-|-5-5-5-5-5-5-5-5-5-5---|

|-3-3-3-3-3-3-3-3-3-3-|-3-3-3-3-3-3-3-3-3-3---|

|-1-1-1-1-1-1-1-1-1-1-|-----------------------|

 

 

D5 Bb5 F5 C5 Dm N.C.

Gtr III

\7

TP

E S E S E E S E S E E S E S E E S E S E E S E S E E S E S E W

|---------------------|---------------------|---------------------|-------||

|---------------------|---------------------|-6-6-6-6-6-6-6-6-6-6-|-------||

|-7-7-7-7-7-3-3-3-3-3-|-----------5-5-5-5-5-|-7-7-7-7-7-7-7-7-7-7-|-x-----||

|-7-7-7-7-7-3-3-3-3-3-|-3-3-3-3-3-5-5-5-5-5-|-7-7-7-7-7-7-7-7-7-7-|-x-----||

|-5-5-5-5-5-1-1-1-1-1-|-3-3-3-3-3-3-3-3-3-3-|-5-5-5-5-5-5-5-5-5-5-|-x-----||

|---------------------|-1-1-1-1-1-----------|---------------------|-------||

 

 

Chorus

Bb5 F5 C5 Dm

Gtrs I, II

E S E S E E S E S E E S E S E E S E S E

||----------------------|----------------------||

||o---------------------|-----------6-6-6-6-6-o||

||--3-3-3-3-3-----------|-5-5-5-5-5-7-7-7-7-7--||

||--3-3-3-3-3-3-3-3-3-3-|-5-5-5-5-5-7-7-7-7-7--||

||o-1-1-1-1-1-3-3-3-3-3-|-3-3-3-3-3-5-5-5-5-5-o||

||------------1-1-1-1-1-|----------------------||

 

 

Bb5 F5 C5 Dm

E S E S E E S E S E E S E S E E S E S E

|---------------------|---------------------|

|---------------------|-----------6-6-6-6-6-|

|-3-3-3-3-3-----------|-5-5-5-5-5-7-7-7-7-7-|

|-3-3-3-3-3-3-3-3-3-3-|-5-5-5-5-5-7-7-7-7-7-|

|-1-1-1-1-1-3-3-3-3-3-|-3-3-3-3-3-5-5-5-5-5-|

|-----------1-1-1-1-1-|---------------------|

 

 

A Bb5 C5 Bb5 F5 Db5

Gtr I

PM----------| PM----------|

E E E E E E E E Q E E Q E E E E E E E E E E Q E E Q E E

|-----------------|---------------|-----------------|-------------------||

|-2---------------|---------------|-----------------|-------------------||

|-2---------------|-3------5------|-3---------------|-/10--------6--6-6-||

|-2-2-2-2-2-2-2-2-|-3--3-3-5--5-5-|-3-3-3-3-3-3-3-3-|-/10--10-10-6--6-6-||

|-0-0-0-0-0-0-0-0-|-1--1-1-3--3-3-|-1-1-1-1-1-1-1-1-|--/8---8--8-4--4-4-||

|-----------------|---------------|-----------------|-------------------||

|

| Gtr II

| PM----------| PM----------|

| E E E E E E E E H H E E E E E E E E H H

|-----------------|---------------|-----------------|-------------------||

|-2---------------|---------------|-----------------|-------------------||

|-2---------------|-3------5------|-3---------------|--10--------6------||

|-2-2-2-2-2-2-2-2-|-3------5------|-3-3-3-3-3-3-3-3-|--10--------6------||

|-0-0-0-0-0-0-0-0-|-1------3------|-1-1-1-1-1-1-1-1-|---8--------4------||

|-----------------|---------------|-----------------|-------------------||

 

 

Guitar Solo

D5 Bb5 F5 C5

~

S S Q E Q. E E Q E Q Q

|------------------------|------------------------|

|------------------------|---5-----6-5------------|

|-----7-------7----------|-7---------------5\-----|

|-5h7-------7----------7-|------------------------|

|------------------------|------------------------|

|------------------------|------------------------|

|

| E S E S E E S E S E E S E S E E S E S E

|------------------------|------------------------|

|------------------------|------------------------|

|------------------------|------------------------|

|-7---7-7-7-7-3--3-3-3-3-|-----------5-5-5----5-5-|

|-5---5-5-5-5-1--1-1-1-1-|-3-3-3-3-3-3-3-3----3-3-|

|------------------------|-1-1-1-1-1--------------|

 

 

D5 Bb5 F5 C5

~

S S S S S S E E +E +E S S E Q E H

|-----------------------------------|----------------------|

|-----------------------------------|----------------------|

|-----------------------------------|---5-----7-5----------|

|-------0h5h7---5-(5)b7---(5)---3h5-|-7--------------------|

|-0h5h7-------7---------------------|----------------------|

|-----------------------------------|----------------------|

|

| E S E S E E S E S E E S E S E E S E S E

|-----------------------------------|----------------------|

|-----------------------------------|----------------------|

|-----------------------------------|----------------------|

|-7---7-7---7-7-3--3----3-----3-3---|-----------5-5-5-5-5--|

|-5---5-5---5-5-1--1----1-----1-1---|-3-3-3-3-3-3-3-3-3-3--|

|-----------------------------------|-1-1-1-1-1------------|

 

 

D5 Bb5 F5 C5

~~~~~~~~ ~~~~~~~~~

a Q Q H a Q Q Q. E

|-------------------------|--------------------------|

|-5h6-----5---------------|-6h8-----6-----8----------|

|---------------5---------|------------------------9-|

|-------------------------|--------------------------|

|-------------------------|--------------------------|

|-------------------------|--------------------------|

|

| E S E S E E S E S E E S E S E E S E S E

|-------------------------|--------------------------|

|-------------------------|--------------------------|

|-------------------------|--------------------------|

|---7-7-7---7-7-3-3-3-3-3-|---------------5--5-5-5-5-|

|---5-5-5---5-5-1-1-1-1-1-|---3-3-3---3-3-3--3-3-3-3-|

|-------------------------|---1-1-1---1-1------------|

 

 

A5

~

a Q Q Q Q H H

|-8h10---8------------|-----------------||

|------------10---8---|-10-------11-----||

|---------------------|-----------------||

|---------------------|-----------------||

|---------------------|-----------------||

|---------------------|-----------------||

|

| E E E E E E E E E E E E Q Q

|---------------------|-----------------||

|---------------------|-----------------||

|----2-2-2-2--2-2-2-2-|--2-2-2-2--2--2--||

|----2-2-2-2--2-2-2-2-|--2-2-2-2--2--2--||

|----0-0-0-0--0-0-0-0-|--0-0-0-0--0--0--||

|---------------------|-----------------||

 

 

Verse

(Dm)

>

W +W

|--------------------|----------------------|

|-10-----------------|-(10)-----------------|

|--------------------|----------------------|

|--------------------|----------------------|

|--------------------|----------------------|

|--------------------|----------------------|

|

| E S E S E E E E E E S E S E E E E E

|--------------------|----------------------|

|--6-6-6-6-5-6-5-6-5-|---6--6-6-6-5-6-5-6-5-|

|--7-7-7-7-5-7-5-7-5-|---7--7-7-7-5-7-5-7-5-|

|--7-7-7-7-7-7-7-7-7-|---7--7-7-7-7-7-7-7-7-|

|--5-5-5-5-5-5-5-5-5-|---5--5-5-5-5-5-5-5-5-|

|--------------------|----------------------|

 

 

F5 C5

+W +W

|------------------------|------------------------|

|-(10)-------------------|-(10)-------------------|

|------------------------|------------------------|

|------------------------|------------------------|

|------------------------|------------------------|

|------------------------|------------------------|

|

| E S E S E E S E S E E S E S E E S E S E

|------------------------|------------------------|

|------------------------|------------------------|

|------------------------|---5--5-5-5-5-5-5-5-5-5-|

|---3--3-3-3-3-3-3-3-3-3-|---5--5-5-5-5-5-5-5-5-5-|

|---3--3-3-3-3-3-3-3-3-3-|---3--3-3-3-3-3-3-3-3-3-|

|---1--1-1-1-1-1-1-1-1-1-|------------------------|

 

 

(Dm)

Gtrs I, II

E S E S E E E E E E S E S E E E E E

|-------------------|-------------------|

|-6-6-6-6-5-6-5-6-5-|-6-6-6-6-5-6-5-6-5-|

|-7-7-7-7-5-7-5-7-5-|-7-7-7-7-5-7-5-7-5-|

|-7-7-7-7-7-7-7-7-7-|-7-7-7-7-7-7-7-7-7-|

|-5-5-5-5-5-5-5-5-5-|-5-5-5-5-5-5-5-5-5-|

|-------------------|-------------------|

 

 

Bb5 C5

E S E S E E S E S E E S S S S E E S E S E

|---------------------|-------------------------||

|---------------------|-------------------------||

|-3-3-3-3-3-3-3-3-3-3-|-5-5-5-5-5-5-5-5-5-5-5---||

|-3-3-3-3-3-3-3-3-3-3-|-5-5-5-5-5-5-5-5-5-5-5---||

|-1-1-1-1-1-1-1-1-1-1-|-3-3-3-3-3-3-3-3-3-3-3---||

|---------------------|-------------------------||

 

 

Pre-Chorus

Dm C5 Bb5

E S E S E E E E E E S E S E E S E S E

|---------------------------------|---------------------|

|-(6)-(6)-(6)-(6)-(6)-(6)-(6)-----|---------------------|

|--7---7---7---7---7---7---7--5-5-|-3-3-3-3-3-3-3-3-3-3-|

|--7---7---7---7---7---7---7--5-5-|-3-3-3-3-3-3-3-3-3-3-|

|--5---5---5---5---5---5---5--3-3-|-1-1-1-1-1-1-1-1-1-1-|

|---------------------------------|---------------------|

 

 

F5 C5

E S E S E E S E S E E S E S E E S E S E

|---------------------|-----------------------|

|---------------------|-----------------------|

|---------------------|-5-5-5-5-5-5-5-5-5-5---|

|-3-3-3-3-3-3-3-3-3-3-|-5-5-5-5-5-5-5-5-5-5---|

|-3-3-3-3-3-3-3-3-3-3-|-3-3-3-3-3-3-3-3-3-3---|

|-1-1-1-1-1-1-1-1-1-1-|-----------------------|

 

 

D5 Bb5 F5 C5

E S E S E E S E S E E S E S E E S E S E

|---------------------|---------------------|

|---------------------|---------------------|

|-7-7-7-7-7-3-3-3-3-3-|-----------5-5-5-5-5-|

|-7-7-7-7-7-3-3-3-3-3-|-3-3-3-3-3-5-5-5-5-5-|

|-5-5-5-5-5-1-1-1-1-1-|-3-3-3-3-3-3-3-3-3-3-|

|---------------------|-1-1-1-1-1-----------|

 

 

Dm N.C.

Gtr III

\7

TP

E S E S E E S E S E W

|-----------------------------------------|-------||

|-(6)-(6)-(6)-(6)-(6)-(6)-(6)-(6)-(6)-(6)-|-------||

|--7---7---7---7---7---7---7---7---7---7--|-x-----||

|--7---7---7---7---7---7---7---7---7---7--|-x-----||

|--5---5---5---5---5---5---5---5---5---5--|-x-----||

|-----------------------------------------|-------||

 

 

Out-Chorus

Bb5 F5 C5 Dm

Gtrs I, II

E S E S E E S E S E E S E S E E S E S E

||----------------------|----------------------||

||o---------------------|-----------6-6-6-6-6-o||

||--3-3-3-3-3-----------|-5-5-5-5-5-7-7-7-7-7--||

||--3-3-3-3-3-3-3-3-3-3-|-5-5-5-5-5-7-7-7-7-7--||

||o-1-1-1-1-1-3-3-3-3-3-|-3-3-3-3-3-5-5-5-5-5-o||

||------------1-1-1-1-1-|----------------------||

 

 

Bb5 F5 C5 Dm

E S E S E E S E S E E S E S E E S E S E

|---------------------|---------------------|

|---------------------|-----------6-6-6-6-6-|

|-3-3-3-3-3-----------|-5-5-5-5-5-7-7-7-7-7-|

|-3-3-3-3-3-3-3-3-3-3-|-5-5-5-5-5-7-7-7-7-7-|

|-1-1-1-1-1-3-3-3-3-3-|-3-3-3-3-3-5-5-5-5-5-|

|-----------1-1-1-1-1-|---------------------|

 

 

A Bb5 C5 Bb5 F5 Db5

Gtr I

PM----------| PM----------|

E E E E E E E E Q E E Q E E E E E E E E E E Q E E Q E E

|-----------------|---------------|-----------------|-------------------||

|-2---------------|---------------|-----------------|-------------------||

|-2---------------|-3------5------|-3---------------|-/10--------6--6-6-||

|-2-2-2-2-2-2-2-2-|-3--3-3-5--5-5-|-3-3-3-3-3-3-3-3-|-/10--10-10-6--6-6-||

|-0-0-0-0-0-0-0-0-|-1--1-1-3--3-3-|-1-1-1-1-1-1-1-1-|--/8---8--8-4--4-4-||

|-----------------|---------------|-----------------|-------------------||

|

| Gtr II

| PM----------| PM----------|

| E E E E E E E E H H E E E E E E E E H H

|-----------------|---------------|-----------------|-------------------||

|-2---------------|---------------|-----------------|-------------------||

|-2---------------|-3------5------|-3---------------|--10--------6------||

|-2-2-2-2-2-2-2-2-|-3------5------|-3-3-3-3-3-3-3-3-|--10--------6------||

|-0-0-0-0-0-0-0-0-|-1------3------|-1-1-1-1-1-1-1-1-|---8--------4------||

|-----------------|---------------|-----------------|-------------------||

 

 

Outro

D5 (Dm) N.C.

E S E.E E E q E S E.E E E q E S E.E E E q E S E. E E E q W

|----------------|----------------|----------------|-----------------|------*|

|-6-6-6p5-6p5-6--|-6-6-6p5-6p5-6--|-6-6-6p5-6p5-6--|-6-6-6--5-6-5-6--|------*|

|-7-7-7p5-7p5-7--|-7-7-7p5-7p5-7--|-7-7-7p5-7p5-7--|-7-7-7--5-7-5-7--|------*|

|----------------|----------------|----------------|-----------------|------*|

|----------------|----------------|----------------|-----------------|------*|

|----------------|----------------|----------------|-----------------|------*|

|

| E S E.E E E q E S E.E E E q E S E.E E E q E S E. E E E q W

|----------------|----------------|----------------|-----------------|------*|

|----------------|----------------|-6-6-6-5-6-5-6--|-6-6-6--5-6-5-6--|------*|

|----------------|----------------|-7-7-7-5-7-5-7--|-7-7-7--5-7-5-7--|------*|

|-7-7-7-7-7-7-7--|-7-7-7-7-7-7-7--|-7-7-7-7-7-7-7--|-7-7-7--7-7-7-7--|------*|

|-5-5-5-5-5-5-5--|-5-5-5-5-5-5-5--|-5-5-5-5-5-5-5--|-5-5-5--5-5-5-5--|------*|

|----------------|----------------|----------------|-----------------|------*|

 

 

 

Duration Legend

---------------

W - whole; H - half; Q - quarter; E - 8th; S - 16th; T - 32nd; X - 64th; a - acciaccatura

+ - note tied to previous; . - note dotted; .. - note double dotted

Uncapitalized letters represent notes that are staccato (1/2 duration)

Irregular groupings are notated above the duration line

Duration letters will always appear directly above the note/fret number it represents the

duration for. Duration letters with no fret number below them represent rests. Multi-

bar rests are notated in the form Wxn, where n is the number of bars to rest for. Low

melody durations appear below the staff

 

Tablature Legend

----------------

h - hammer-on

p - pull-off

b - bend

pb - pre-bend

r - bend release (if no number after the r, then release immediately)

/\ - slide into or out of (from/to "nowhere")

s - legato slide

S - shift slide

- natural harmonic

[n] - artificial harmonic

n(n) - tapped harmonic

~ - vibrato

tr - trill

T - tap

TP - trem. picking

PM - palm muting

\n/ - tremolo bar dip; n = amount to dip

\n - tremolo bar down

n/ - tremolo bar up

/n\ - tremolo bar inverted dip

= - hold bend; also acts as connecting device for hammers/pulls

<> - volume swell (louder/softer)

x - on rhythm slash represents muted slash

o - on rhythm slash represents single note slash

 

Misc Legend

-----------

| - bar

|| - double bar

||o - repeat start

o|| - repeat end

*| - double bar (ending)

: - bar (freetime)

$ - Segno

& - Coda

Tempo markers - = BPM(8/16=s8/s16), where s8 = swing 8ths, s16 = swing 16ths

Return to my Bad Religion Guitar Tabs page

The Tablature is Copyright its respective owners.

Sign Up For My Newsletter
Subscribe | Unsubscribe

Site Map | Disclaimer | Privacy Policy | Media Kit | Submissions/Corrections

Website © 2000-2014 mattsmusicpage.com. All rights reserved.

Legal & DMCA: Matt's Music Page has been providing lyrics and tabs in a legal way, paying royalties each year to a few organizations. Then, all lyrics and tabs were removed from the site. Now, there's a new owner to the site, which purchased it August 26, 2014, and he is in negotiation to obtain licensing from BMI at the moment. If you have a specific DMCA request -- please do not hesitate to contact me via the contact button on top. I will do my very best to keep this site fully legal.

Get our toolbar!