Your One-Stop Source For
Music Lyrics
Bass and Guitar Tabs
and More...
>Music Lyrics Bass and Guitar Tabs

 

The Bad Religion Bass Tabs Are Below

Learn To Read Tab
Chords Handbook
Corrections & Additions
Get Official Tab
Bad Religion tabs @ 911Tabs

SCRUTINY (Bassline)

As recorded by Bad Religion

(From the 2007 Album NEW MAPS OF HELL)

 

Transcribed by Whoabot

 

Words and Music by Bad Religion

Arranged by Bad Religion

 

Gtr I (E A D G) - 'Untitled'

 

Intro

Q=154

4/4

Gtr I

E S E S E E E E E E S E S E E E E E E S E S E E E E E E S E S E q Q

|-------------------|-------------------|-------------------|-----------------||

|-------------------|-------------------|-------------------|-----------------||

|-3-3-3-3-3-3-3-3-3-|-3-3-3-3-3-3-3-3-3-|-3-3-3-3-3-3-3-3-3-|-3-3-3-3-3-3-----||

|-------------------|-------------------|-------------------|-----------------||

 

 

Verse

E S E S E E E q E S E S E E E q

|------------------|------------------|

|------------------|------------------|

|-5-5-5-5-5-5-5-5--|-5-5-5-5-5-5-5-5--|

|------------------|------------------|

 

 

E S E S E E S E S E E S E S E E E E E

|---------------------|--------------------|

|---------------------|-------------3------|

|---------------------|-3-3-3-3-0-3---0-3--|

|-1-1-1-1-1-1-1-1-1-1-|--------------------|

 

 

E S E S E E E q E S E S E E E E E

|------------------|-------------------|

|------------------|-------------------|

|-5-5-5-5-5-5-5-5--|-5-5-5-5-5-5-5-5-3-|

|------------------|-------------------|

 

 

E S E S E E S E S E E S E S E E E S S S S

|---------------------|-------------------------||

|---------------------|-------------------------||

|-1-1-1-1-1-1-1-1-1-1-|-3-3-3-3-0-3-3-3-3-3-3---||

|---------------------|-------------------------||

 

 

Pre-Chorus

E S E S E E E Q E S E S E E S E S E

|------------------|---------------------|

|------------------|---------------------|

|-5-5-5-5-5-5-5-3--|-1-1-1-1-1-1-1-1-1-1-|

|------------------|---------------------|

 

 

E S E S E E S E S E E S E S E E S E S E

|---------------------|-----------------------|

|---------------------|-----------------------|

|---------------------|-3-3-3-3-3-3-3-3-3-3---|

|-1-1-1-1-1-1-1-1-1-1-|-----------------------|

 

 

E S E S E E S E S E E S E S E E S E S E

|---------------------|---------------------|

|---------------------|---------------------|

|-5-5-5-5-0-1-1-1-1-1-|-----------3-3-3-3-3-|

|---------------------|-1-1-1-1-1-----------|

 

 

E S S S S E E S E S E E +E E +E H

|-----------------------|----------------------||

|-----------------------|----------------------||

|-5-5-5-5-5-5-5-5-5-5-5-|-5-(5)S12-(12)S17\----||

|-----------------------|----------------------||

 

 

Chorus

E S E S E E S E S E E S E S E E S E S E

||----------------------|----------------------||

||o---------------------|---------------------o||

||o-1-1-1-1-1-----------|-3-3-3-3-3-5-5-5-5-0-o||

||------------1-1-1-1-1-|----------------------||

 

 

E S E S E E S E S E E S E S E E S E S E

|---------------------|---------------------|

|-----------3-3-3-3-3-|---------------------|

|-1-1-1-1-1-----------|-3-3-3-3-3-5-5-5-5-5-|

|---------------------|---------------------|

 

 

E E E E E E E E H H E E E E E E E E E E E E E E E E

|-----------------|-----------|-----------------|-----------------||

|-----------------|-----------|-----------------|-----------------||

|-0-0-0-0-0-0-0-0-|-1----3----|-1-1-1-1-1-1-1-1S|=8-8-8-8---------||

|-----------------|-----------|-----------------|---------9-9-9-9-||

 

 

Pre-Verse

E S E S E E E E E E S E S E E E E E

|-------------------|-------------------|

|-------------------|-------------------|

|-3-3-3-3-3-3-3-3-3-|-3-3-3-3-3-3-3-3-3-|

|-------------------|-------------------|

 

 

E S E S E E E E E E S E S E E S E S E

|-------------------|---------------------||

|-------------------|---------------------||

|-3-3-3-3-3-3-3-3-3-|-3-3-3-3-3-3-3-3-3-3-||

|-------------------|---------------------||

 

 

Verse

E S E S E E E q E S E S E E E q

|------------------|------------------|

|------------------|------------------|

|-5-5-5-5-5-5-5-5--|-5-5-5-5-5-5-5-5--|

|------------------|------------------|

 

 

E S E S E E S E S E E S E S E E E E E

|---------------------|--------------------|

|---------------------|-------------3------|

|---------------------|-3-3-3-3-0-3---3-0--|

|-1-1-1-1-1-1-1-1-1-1-|--------------------|

 

 

E S E S E E E q E S E S E E E E E

|------------------|-------------------|

|------------------|-------------------|

|-5-5-5-5-5-5-5-5--|-5-5-5-5-5-5-5-5-3-|

|------------------|-------------------|

 

 

E S E S E E S E S E E S E S E E E S S S S

|---------------------|-------------------------||

|---------------------|-------------------------||

|-1-1-1-1-1-1-1-1-1-1-|-3-3-3-3-0-3-3-3-3-3-3---||

|---------------------|-------------------------||

 

 

Pre-Chorus

E S E S E E E Q E S E S E E S E S E

|------------------|---------------------|

|------------------|---------------------|

|-5-5-5-5-5-5-5-3--|-1-1-1-1-1-1-1-1-1-1-|

|------------------|---------------------|

 

 

E S E S E E S E S E E S E S E E S E S E

|---------------------|-----------------------|

|---------------------|-----------------------|

|---------------------|-3-3-3-3-3-3-3-3-3-3---|

|-1-1-1-1-1-1-1-1-1-1-|-----------------------|

 

 

E S E S E E S E S E E S E S E E S E S E

|---------------------|---------------------|

|---------------------|---------------------|

|-5-5-5-5-0-1-1-1-1-1-|-----------3-3-3-3-3-|

|---------------------|-1-1-1-1-1-----------|

 

 

E S S S S E E S E S E E E E E E E E E

|-----------------------|---5-7-5-----------||

|---------------------5-|-7-------7-6-5-----||

|-5-5-5-5-5-5-5-5-5-5---|---------------5---||

|-----------------------|-------------------||

 

 

Chorus

E S E S E E S E S E E S E S E E S E S E

||----------------------|----------------------||

||o---------------------|---------------------o||

||o-1-1-1-1-1-----------|-3-3-3-3-3-5-5-5-5-0-o||

||------------1-1-1-1-1-|----------------------||

 

 

E S E S E E S E S E E S E S E E S E S E

|---------------------|---------------------|

|-----------3-3-3-3-3-|---------------------|

|-1-1-1-1-1-----------|-3-3-3-3-3-5-5-5-5-5-|

|---------------------|---------------------|

 

 

E E E E E E E E H H E E E E E E E E E E E E E E E E

|-----------------|-----------|-----------------|-----------------||

|-----------------|-----------|-----------------|-----------------||

|-0-0-0-0-0-0-0-0-|-1----3----|-1-1-1-1-1-1-1-1S|=8-8-8-8---------||

|-----------------|-----------|-----------------|---------9-9-9-9-||

 

 

Guitar Solo

E S E S E E S E S E E S E S E E S E S E

|---------------------|---------------------|

|---------------------|---------------------|

|-5-5-5-5-0-1-1-1-1-1-|-----------3-3-3-3-3-|

|---------------------|-1-1-1-1-1-----------|

 

 

E S E S E E S E S E E S E S E E S E S E

|---------------------|----------------------|

|---------------------|----------------------|

|-5-5-5-5-0-1-1-1-1-1-|-----------3-3-3-3-3--|

|---------------------|-1-1-1-1-1------------|

 

 

E S E S E E S E S E E S E S E E S E S E

|---------------------|---------------------|

|---------------------|---------------------|

|-5-5-5-5-0-1-1-1-1-1-|-----------3-3-3-3-0-|

|---------------------|-1-1-1-1-1-----------|

 

 

E S E S E E S E S E E E E E E E E E

|---------------------|-------5---------||

|---------------------|---5-7---7-6-5---||

|-0-0-0-0-0-0-0-0-0-0-|-0-------------3-||

|---------------------|-----------------||

 

 

Verse

E S E S E E S E S E E S E S E E S E S E

|---------------------|---------------------|

|---------------------|---------------------|

|-5-5-5-5-5-5-5-5-5-5-|-5-5-5-5-5-5-5-5-5-5-|

|---------------------|---------------------|

 

 

E S E S E E S E S E E S E S E E E E E

|---------------------|---------------------|

|---------------------|-------------3-------|

|---------------------|-3-3-3-3-0-3---3-0---|

|-1-1-1-1-1-1-1-1-1-1-|---------------------|

 

 

E S E S E E E q E S E S E E E E E

|------------------|-------------------|

|------------------|-------------------|

|-5-5-5-5-5-5-5-5--|-5-5-5-5-5-5-5-5-3-|

|------------------|-------------------|

 

 

E S E S E E S E S E E S E S E E E E E

|---------------------|--------------------||

|---------------------|--------------------||

|-1-1-1-1-1-1-1-1-1-1-|-3-3-3-3-0-3-0-3-0--||

|---------------------|--------------------||

 

 

Pre-Chorus

E S E S E E E Q E S E S E E S E S E

|------------------|---------------------|

|------------------|---------------------|

|-5-5-5-5-5-5-5-3--|-1-1-1-1-1-1-1-1-1-1-|

|------------------|---------------------|

 

 

E S E S E E S E S E E S E S E E S E S E

|---------------------|-----------------------|

|---------------------|-----------------------|

|---------------------|-3-3-3-3-3-3-3-3-3-3---|

|-1-1-1-1-1-1-1-1-1-1-|-----------------------|

 

 

E S E S E E S E S E E S E S E E S E S E

|---------------------|---------------------|

|---------------------|---------------------|

|-5-5-5-5-0-1-1-1-1-1-|-----------3-3-3-3-3-|

|---------------------|-1-1-1-1-1-----------|

 

 

E S S S S E E S E S E E E E E E E E E

|-----------------------|-7-5---------------||

|---------------------7-|-----7-6-5---------||

|-5-5-5-5-5-5-5-5-5-5---|-----------7-5-3---||

|-----------------------|-------------------||

 

 

Out-Chorus

E S E S E E S E S E E S E S E E S E S E

||----------------------|----------------------||

||o---------------------|---------------------o||

||o-1-1-1-1-1-----------|-3-3-3-3-3-5-5-5-5-0-o||

||------------1-1-1-1-1-|----------------------||

 

 

E S E S E E S E S E E S E S E E S E S E

|---------------------|---------------------|

|-----------3-3-3-3-3-|---------------------|

|-1-1-1-1-1-----------|-3-3-3-3-3-5-5-5-5-5-|

|---------------------|---------------------|

 

 

E E E E E E E E H H E E E E E E E E E E E E E E E E

|-----------------|-----------|-----------------|-----------------||

|-----------------|-----------|-----------------|-----------------||

|-0-0-0-0-0-0-0-0-|-1----3----|-1-1-1-1-1-1-1-1S|=8-8-8-8---------||

|-----------------|-----------|-----------------|---------9-9-9-9-||

 

 

Outro

E S E S E E E q E S E S E E E q E S E S E E E q

|------------------|------------------|------------------|

|------------------|------------------|-7-7-7-7-7-7-7-7--|

|-5-5-5-5-5-5-5-5--|-8-8-8-8-8-8-8-8--|------------------|

|------------------|------------------|------------------|

 

 

E S E S E E E E E +W

|-----------------------------|--------*|

|-12-12-12-12-12-12-12-12p(0)-|-(0)----*|

|-----------------------------|--------*|

|-----------------------------|--------*|

 

 

 

Duration Legend

---------------

W - whole; H - half; Q - quarter; E - 8th; S - 16th; T - 32nd; X - 64th; a - acciaccatura

+ - note tied to previous; . - note dotted; .. - note double dotted

Uncapitalized letters represent notes that are staccato (1/2 duration)

Irregular groupings are notated above the duration line

Duration letters will always appear directly above the note/fret number it represents the

duration for. Duration letters with no fret number below them represent rests. Multi-

bar rests are notated in the form Wxn, where n is the number of bars to rest for. Low

melody durations appear below the staff

 

Tablature Legend

----------------

h - hammer-on

p - pull-off

b - bend

pb - pre-bend

r - bend release (if no number after the r, then release immediately)

/\ - slide into or out of (from/to "nowhere")

s - legato slide

S - shift slide

- natural harmonic

[n] - artificial harmonic

n(n) - tapped harmonic

~ - vibrato

tr - trill

T - tap

TP - trem. picking

PM - palm muting

\n/ - tremolo bar dip; n = amount to dip

\n - tremolo bar down

n/ - tremolo bar up

/n\ - tremolo bar inverted dip

= - hold bend; also acts as connecting device for hammers/pulls

<> - volume swell (louder/softer)

x - on rhythm slash represents muted slash

o - on rhythm slash represents single note slash

 

Misc Legend

-----------

| - bar

|| - double bar

||o - repeat start

o|| - repeat end

*| - double bar (ending)

: - bar (freetime)

$ - Segno

& - Coda

Tempo markers - = BPM(8/16=s8/s16), where s8 = swing 8ths, s16 = swing 16ths

Return to my Bad Religion Bass Tabs page

The Tablature is Copyright its respective owners.

Sign Up For My Newsletter
Subscribe | Unsubscribe

Site Map | Disclaimer | Privacy Policy | Media Kit | Submissions/Corrections

Website © 2000-2014 mattsmusicpage.com. All rights reserved.

Legal & DMCA: Matt's Music Page has been providing lyrics and tabs in a legal way, paying royalties each year to a few organizations. Then, all lyrics and tabs were removed from the site. Now, there's a new owner to the site, which purchased it August 26, 2014, and he is in negotiation to obtain licensing from BMI at the moment. If you have a specific DMCA request -- please do not hesitate to contact me via the contact button on top. I will do my very best to keep this site fully legal.

Get our toolbar!

 

® Elvis Presley Figure with Bars & Vinyl Record Stage
$23.99
® Elvis Presley Figure with Bars & Vinyl Record Stage picture


THE LONGINES SYMPHONETTE "SENTIMENTAL JOURNEY" VINTAGE VINYL ALBUM RECORD BOWL
$19.99
 THE LONGINES SYMPHONETTE


African Ghana Medley Vinyl Phono Record Beads (8mm) Ghana
$15.0
African Ghana Medley Vinyl Phono Record Beads (8mm)  Ghana picture


African Yellow Vinyl Phono Record Beads (6mm) Ghana
$12.0
African Yellow Vinyl Phono Record Beads (6mm)  Ghana picture


African Vintage Vinyl Phono Record Beads (7mm - Set of 4) Ghana
$69.0
African Vintage Vinyl Phono Record Beads (7mm - Set of 4)  Ghana picture