Your One-Stop Source For
Music Lyrics
Bass and Guitar Tabs
and More...
Music Lyrics Bass and Guitar Tabs

 

The Bad Religion Tabs Are Below

Learn To Read Tab
Chords Handbook
Corrections & Additions
Get Official Tab
Bad Religion tabs @ 911Tabs

REQUIEM FOR DISSENT

As recorded by Bad Religion

(From the 2007 Album NEW MAPS OF HELL)

 

Words and Music by Bad Religion

Arranged by Bad Religion

Transcribed by Spidey255

 

Am G5 C5 D5

5 7 7 5 5 5 3 5 5 x x x x 3 5 5 x x x 5 7 7 x x

 

F5 F5(type 2) G5(type 2) A5

1 3 3 x x x x 8 10 10 x x x 10 12 12 x x 5 7 7 x x x

 

Gtr I (E A D G B E) - 'Untitled'

Gtr II (E A D G B E) - 'Untitled'

Gtr III (E A D G B E) - 'Untitled'

 

Intro

Q=144

Am G5C5 G5 Am G5C5 G5

4/4

Gtr I

E S S +S S E Q Q E S S +S S E Q Q

|-(5)-(5)-(5)-(5)-(5)---------|-(5)-(5)-(5)-(5)-(5)---------|

|--5---5---5--(5)--5----------|--5---5---5--(5)--5----------|

|--5---5---5--(5)--5----5-----|--5---5---5--(5)--5----5-----|

|--7---7---7--(7)--7--5-5--5--|--7---7---7--(7)--7--5-5--5--|

|--7---7---7--(7)--7--5-3--5--|--7---7---7--(7)--7--5-3--5--|

|--5---5---5--(5)--5--3----3--|--5---5---5--(5)--5--3----3--|

 

 

Am G5C5 G5 Am G5C5 G5

E S S +S S E Q Q E S S +S S E Q Q

|-(5)-(5)-(5)-(5)-(5)---------|-(5)-(5)-(5)-(5)-(5)---------|

|--5---5---5--(5)--5----------|--5---5---5--(5)--5----------|

|--5---5---5--(5)--5----5-----|--5---5---5--(5)--5----5-----|

|--7---7---7--(7)--7--5-5--5--|--7---7---7--(7)--7--5-5--5--|

|--7---7---7--(7)--7--5-3--5--|--7---7---7--(7)--7--5-3--5--|

|--5---5---5--(5)--5--3----3--|--5---5---5--(5)--5--3----3--|

 

 

Verse

$

Am G5C5 G5 Am G5C5 G5

E S S +S S E Q Q E S S +S S E Q Q

||--(5)-(5)-(5)-(5)-(5)---------|-(5)-(5)-(5)-(5)-(5)---------|

||o--5---5---5--(5)--5----------|--5---5---5--(5)--5----------|

||---5---5---5--(5)--5----5-----|--5---5---5--(5)--5----5-----|

||---7---7---7--(7)--7--5-5--5--|--7---7---7--(7)--7--5-5--5--|

||o--7---7---7--(7)--7--5-3--5--|--7---7---7--(7)--7--5-3--5--|

||---5---5---5--(5)--5--3----3--|--5---5---5--(5)--5--3----3--|

 

 

F5 G5

E S S +S S E E S S +S S E E S S +S S E E S S +S S E

|-----------------------------|---------------------------------||

|-----------------------------|--------------------------------o||

|-----------------------------|---------------------------------||

|-3-3-3-(3)-3-3-3-3-3-(3)-3-3-|-5-5-5-(5)-5-5-5-5-5-(5)-5-5-----||

|-3-3-3-(3)-3-3-3-3-3-(3)-3-3-|-5-5-5-(5)-5-5-5-5-5-(5)-5-5----o||

|-1-1-1-(1)-1-1-1-1-1-(1)-1-1-|-3-3-3-(3)-3-3-3-3-3-(3)-3-3-----||

 

 

Chorus

1.

A5 F5 C5

E E E E E E Q E S S +S S E E E E E

||------------------|------------------------||

||o-----------------|-----------------------o||

||------------------|---------------5-5-5-5--||

||--7---7---7---7\--|-3-3-3-(3)-3-3-5-5-5-5--||

||o-7---7---7---7\--|-3-3-3-(3)-3-3-3-3-3-3-o||

||--5---5---5---5\--|-1-1-1-(1)-1-1----------||

 

 

2.

F5 G5 A5

E S S +S S E E E E E E E E E E E Q

|-----------------------|------------------|

|-----------------------|------------------|

|-----------------------|------------------|

|-3-3-3-(3)-3-3-5-5-5-5-|-7---7---7---7\---|

|-3-3-3-(3)-3-3-5-5-5-5-|-7---7---7---7\---|

|-1-1-1-(1)-1-1-3-3-3-3-|-5---5---5---5\---|

 

 

To Coda

F5 C5 G5 D5 F5 G5

2/4

E S S +S S E E E E E E E E E E E E E E E E E

|-----------------------|-----------------|---------|

|-----------------------|-----------------|---------|

|---------------5-5-5-5-|---------7-7-7-7-|---------|

|-3-3-3-(3)-3-3-5-5-5-5-|-5-5-5-5-7-7-7-7-|-3-3-5-5-|

|-3-3-3-(3)-3-3-3-3-3-3-|-5-5-5-5-5-5-5-5-|-3-3-5-5-|

|-1-1-1-(1)-1-1---------|-3-3-3-3---------|-1-1-3-3-|

 

 

Guitar Solo

Am G5C5 G5 Am G5C5 G5

4/4

Gtr I

E S S +S S E Q Q E S S +S S E Q Q

| | | | | | | | | | | | | | | |

/ / / / / / / / / / / / / / / /

 

Gtr II

E S S +S S E Q E E E S S +S S E Q E E

|---------5-(5)-5-5------5-5-|---------5-(5)-5-5------5-5-|

|-5-------5-(5)-5-5-5----5-5-|-5-------5-(5)-5-5-5----5-5-|

|-7b9==7r-----------7b9------|-7b9==7r-----------7b9------|

|----------------------------|----------------------------|

|----------------------------|----------------------------|

|----------------------------|----------------------------|

 

 

D.S. al Coda

Am G5C5 G5 Am G5C5 G5

E S S +S S E Q Q E S S +S S E Q Q

| | | | | | | | | | | | | | | |

/ / / / / / / / / / / / / / / /

 

E S S +S S E Q Q +H +H

|---------5-(5)-5-5------------|------------------------|

|-5-------5-(5)-5-5-5----5-----|-(5)------------(5)-----|

|-7b9==7r-----------7b9--7b9===|=(7)r===========(7)-----|

|------------------------------|------------------------|

|------------------------------|------------------------|

|------------------------------|------------------------|

 

 

Guitar Solo 2

&

Am G5C5 D5 F5 G5

E S S +S S E E S S +S S E E S S +S S E E E E E

| | | | | | | | | | | | | | | | | | | | | |

/ / / / / / / / / / / / / / / / / / / / / /

 

E S E. E S S S E S E E S E. E S S S E S E

|-5---5----------5-8p5--------------5-|-5---5----------5-8p5-------------5-|

|-5---5-5--------5-----5-5----------5-|-5---5-5--------5-----5-5---------5-|

|-7b9---7b9--------------7b9=====7r---|-7b9---7b9--------------7b9====7r---|

|-------------------------------------|------------------------------------|

|-------------------------------------|------------------------------------|

|-------------------------------------|------------------------------------|

 

 

Am G5 C5 D5 F5(tyG5 2)

E S S +S S E E S S +S S E E S S +S S E Q E E

| | | | | | | | | | | | | | | | | | | | |

/ / / / / / / / / / / / / / / / / / / / /

 

E +E +E E S +S S S +E E S S S S S +S S S +Q Q

|---------------------------------------------|----------------------------------|

|-5---(5)-----(5)-----------------------------|----------------------------------|

|-7b9r(7)b9r==(7)b9r==7b9-7b9-(7)-5-----------|-----5----7b9-(7)-5---------------|

|-----------------------------------7-(7)---7-|-5-7---7------------7-(7)---------|

|---------------------------------------------|---------------------------/12\---|

|---------------------------------------------|----------------------------------|

 

 

Am G5 C5 D5 F5(G5(tyAm

E S S +S S E E S S +S S E E S S +S S E Q Q

| | | | | | | | | | | | | | | | | | | |

/ / / / / / / / / / / / / / / / / / / /

 

~~~~~~~~ ~~~ ~~~~~

E E +E E a +E +E +Q S S S S S S E Q Q

|----------------------------------------|----------------------|

|----------------------------------------|----------------------|

|----------------------------------------|----------------------|

|----------------------------------------|----------------7--5--|

|-0-3---(3)---5-3-(3)b5.5==(3)r==(3)-----|-0-3-0-3--5-7---------|

|----------------------------------------|----------------------|

 

 

2) G5 C5 D5 F5(typG5(type 2)

E S S +S S E E S S +S S E E S S +S S E Q Q

| | | | | | | | | | | | | | | | | | | |

/ / / / / / / / / / / / / / / / / / / /

 

|---3---| |---3---|

E +S S S E +E E +S S S E +S S S S S S E E +Q Q

|----------------------------------------------------------|------8-10--8-----------------|

|-----------------8b10---(8)-----------------8b10---(8)----|-8-10-----------10-(10)--8----|

|-7b9-(7)p5------------------7b9-(7)p5------------------h9-|------------------------------|

|-------------h7-------------------------h7----------------|------------------------------|

|----------------------------------------------------------|------------------------------|

|----------------------------------------------------------|------------------------------|

 

 

Bridge

A5 G5C5 G5 A5 G5C5 G5

Gtr I

PM------------------------------------------------

E S S +S S E E E E E E S S +S S E E E E E

|------------------------|--------------------------|

|------------------------|--------------------------|

|------------------------|--------------------------|

|----------------5-5-----|------------------5-5-----|

|--7-7-7-(7)-7-5-3-3-5-5-|---7--7-7-(7)-7-5-3-3-5-5-|

|--5-5-5-(5)-5-3-----3-3-|---5--5-5-(5)-5-3-----3-3-|

|

| Gtr II

| >

| W +W

|------------------------|--------------------------|

|-10---------------------|-(10)---------------------|

|------------------------|--------------------------|

|------------------------|--------------------------|

|------------------------|--------------------------|

|------------------------|--------------------------|

 

 

F5 G5

-------------------------------------------------------|

E S S +S S E E E E E E S S +S S E E E E E

|--------------------------|-------------------------------|

|--------------------------|-------------------------------|

|--------------------------|-------------------------------|

|--------------------------|-------------------------------|

|---3--3-3-(3)-3-3-3-3-3-3-|---5--5-5-(5)-5-5---5---5-5-5--|

|---1--1-1-(1)-1-1-1-1-1-1-|---3--3-3-(3)-3-3---3---3-3-3--|

|

| +W +H Q Q

|--------------------------|-------------------------------|

|-(10)---------------------|-(10)-------------(10)\--------|

|--------------------------|-------------------------------|

|--------------------------|-------------------------------|

|--------------------------|-------------------------------|

|--------------------------|-------------------------------|

 

 

A5 G5C5 G5 A5 G5C5 G5

PM---------------------------------------------

E S S +S S E E E E E E S S +S S E E E E E

|-----------------------|-----------------------|

|-----------------------|-----------------------|

|-----------------------|-----------------------|

|---------------5-5-----|---------------5-5-----|

|-7-7-7-(7)-7-5-3-3-5-5-|-7-7-7-(7)-7-5-3-3-5-5-|

|-5-5-5-(5)-5-3-----3-3-|-5-5-5-(5)-5-3-----3-3-|

|

| W W

|-----------------------|-----------------------|

|-----------------------|-----------------------|

|-----------------------|-----------------------|

|-----------------------|-----------------------|

|-----------------------|-----------------------|

|-----------------------|-----------------------|

 

 

F5 G5

---------------------|

E S S +S S E E E E E E E E E E E E E

|-----------------------|----------------------|

|-----------------------|----------------------|

|-----------------------|----------------------|

|-----------------------|--5--5--5--5-5--5-5-5-|

|-3-3-3-(3)-3-3-3-3-3-3-|--5--5--5--5-5--5-5-5-|

|-1-1-1-(1)-1-1-1-1-1-1-|--3--3--3--3-3--3-3-3-|

|

| Gtr III

| \7

| TP

| W E E E E H

|-----------------------|----------------------|

|-----------------------|----------------------|

|-----------------------|-12-12-12-12-x--------|

|-----------------------|-12-12-12-12-x--------|

|-----------------------|-10-10-10-10-x--------|

|-----------------------|-------------x--------|

 

 

Chorus

A5 F5 C5 A5 F5 G5

Gtr I

Q E E +Q E E H H Q E E +Q E E H H

| | | | | | | | | | | | | |

/ / / / / / / / / / / / / /

 

Gtr II

W H H H H H H

|----------------|-----------|----------------|-----------|

|----------------|-----------|----------------|-----------|

|----------------|------5----|----------------|-----------|

|-7--------------|-3----5----|-7-------7------|-3----5----|

|-7--------------|-3----3----|-7-------7------|-3----5----|

|-5--------------|-1---------|-5-------5------|-1----3----|

 

 

A5 F5 C5 G5 D5 F5 G5

2/4

Gtr I

E E E E E E Q E S S +S S E E E E E E E E E E E E E E E E E

|-----------------|-----------------------|-----------------|----------|

|-----------------|-----------------------|-----------------|----------|

|-----------------|---------------5-5-5-5-|---------7-7-7-7-|----------|

|-7---7---7---7\--|-3-3-3-(3)-3-3-5-5-5-5-|-5-5-5-5-7-7-7-7-|-3-3-5-5--|

|-7---7---7---7\--|-3-3-3-(3)-3-3-3-3-3-3-|-5-5-5-5-5-5-5-5-|-3-3-5-5--|

|-5---5---5---5\--|-1-1-1-(1)-1-1---------|-3-3-3-3---------|-1-1-3-3--|

 

 

A5 F5 C5

4/4

Gtr I

E S S +S S E E E E E E S S +S S E E E E E

| | | | | | | | | | | | | | | | | | | |

/ / / / / / / / / / / / / / / / / / / /

 

Gtr II

E S S +S S E E S S +S S E E S S +S S E S +S S S +E E

|-5---5-5-(5)-5-----5-5-5-(5)-5-----|-----5-5-(5)-5-----------------------|

|-5---5-5-(5)-5-5---5-5-5-(5)-5-5---|-5---5-5-(5)-5-5---------------------|

|-7b9-----------7b9-------------7b9-|-7b9-----------7b9-7b9-(7)-5---------|

|-----------------------------------|-----------------------------7-(7)-7-|

|-----------------------------------|-------------------------------------|

|-----------------------------------|-------------------------------------|

 

 

A5 F5 G5

E S S +S S E E E E E E S S +S S E E E E E

| | | | | | | | | | | | | | | | | | | |

/ / / / / / / / / / / / / / / / / / / /

 

E E S +S E E E S +S E E E S +S E E E S +S E

|----------------------------------------|--------------------------------------5S=|

|-5---5----------------5---5-------------|-5---5----------------5---5-----------5S=|

|-7b9-7b9----7b9-(7)---7b9-7b9-7b9-(7)---|-7b9-7b9----7b9-(7)---7b9-7b9-7b9-(7)----|

|--------------------7-----------------7-|--------------------7--------------------|

|----------------------------------------|-----------------------------------------|

|----------------------------------------|-----------------------------------------|

 

 

A5 F5 C5

E S S +S S E E E E E E S S +S S E E E E E

| | | | | | | | | | | | | | | | | | | |

/ / / / / / / / / / / / / / / / / / / /

 

E E S S E E E S S E E E S S E E +E E E

|-17-17---17-17-------17-17-17-17-------|-17-17---17-17------------------------|

|-17-17---17-17-17----17-17-17-17-17----|-17-17---17-17-17---------------------|

|---------------19b21-------------19b21-|---------------19b21-19b21-(19)-17----|

|---------------------------------------|-----------------------------------19-|

|---------------------------------------|--------------------------------------|

|---------------------------------------|--------------------------------------|

 

 

G5 D5 F5 G5

2/4

E E E E E E E E E E E E

| | | | | | | | | | | |

/ / / / / / / / / / / /

 

E E S S E E E S S E E E E E

|-17----------------------17----------------------|----------------|

|-17----17----------------17----17----------------|----------------|

|-19b21-19b21-19b21-19----19b21-19b21-19b21-19----|-19b21-19-17-16-|

|----------------------19----------------------19-|----------------|

|-------------------------------------------------|----------------|

|-------------------------------------------------|----------------|

 

 

Outro

Am G5C5 G5

4/4

E S S +S S E Q Q

| | | | | | | |

/ / / / / / / /

 

Gtr II

E S S +S S E E +E E +E 3x

||----------5-(5)-5--------------------||

||o-5-------5-(5)-5---5-------5-------o||

||--7b9==7r---------7-7b9-(7)-7b9-(7)--||

||-------------------------------------||

||o-----------------------------------o||

||-------------------------------------||

 

 

Am G5C5 G5 Am

E S S +S S E Q Q W Q Q H

| | | | | | | | | |

/ / / / / / / / / /

 

H +H W Q Q H

|------------------------|----------|-------------*|

|-5--------------(5)-----|-5--------|-5\----------*|

|-7b9------------(7)-----|-5--------|-5\----------*|

|------------------------|----------|-------------*|

|------------------------|----------|-------------*|

|------------------------|----------|-------------*|

 

 

Duration Legend

---------------

W - whole; H - half; Q - quarter; E - 8th; S - 16th; T - 32nd; X - 64th; a - acciaccatura

+ - note tied to previous; . - note dotted; .. - note double dotted

Uncapitalized letters represent notes that are staccato (1/2 duration)

Irregular groupings are notated above the duration line

Duration letters will always appear directly above the note/fret number it represents the

duration for. Duration letters with no fret number below them represent rests. Multi-

bar rests are notated in the form Wxn, where n is the number of bars to rest for. Low

melody durations appear below the staff

 

Tablature Legend

----------------

h - hammer-on

p - pull-off

b - bend

pb - pre-bend

r - bend release (if no number after the r, then release immediately)

/\ - slide into or out of (from/to "nowhere")

s - legato slide

S - shift slide

- natural harmonic

[n] - artificial harmonic

n(n) - tapped harmonic

~ - vibrato

tr - trill

T - tap

TP - trem. picking

PM - palm muting

\n/ - tremolo bar dip; n = amount to dip

\n - tremolo bar down

n/ - tremolo bar up

/n\ - tremolo bar inverted dip

= - hold bend; also acts as connecting device for hammers/pulls

<> - volume swell (louder/softer)

x - on rhythm slash represents muted slash

o - on rhythm slash represents single note slash

 

Misc Legend

-----------

| - bar

|| - double bar

||o - repeat start

o|| - repeat end

*| - double bar (ending)

: - bar (freetime)

$ - Segno

& - Coda

Tempo markers - = BPM(8/16=s8/s16), where s8 = swing 8ths, s16 = swing 16ths

Return to my Bad Religion Guitar Tabs page

The Tablature is Copyright its respective owners.

Sign Up For My Newsletter
Subscribe | Unsubscribe

Site Map | Disclaimer | Privacy Policy | Media Kit | Submissions/Corrections

Website © 2000-2014 mattsmusicpage.com. All rights reserved.

Legal & DMCA: Matt's Music Page has been providing lyrics and tabs in a legal way, paying royalties each year to a few organizations. Then, all lyrics and tabs were removed from the site. Now, there's a new owner to the site, which purchased it August 26, 2014, and he is in negotiation to obtain licensing from BMI at the moment. If you have a specific DMCA request -- please do not hesitate to contact me via the contact button on top. I will do my very best to keep this site fully legal.

Get our toolbar!