Your One-Stop Source For
Music Lyrics
Bass and Guitar Tabs
and More...
Music Lyrics Bass and Guitar Tabs

 

The Bad Religion Bass Tabs Are Below

Learn To Read Tab
Chords Handbook
Corrections & Additions
Get Official Tab
Bad Religion tabs @ 911Tabs

REQUIEM FOR DISSENT (Bassline)

As recorded by Bad Religion

(From the 2007 Album NEW MAPS OF HELL)

 

Words and Music by Bad Religion

Arranged by Bad Religion

Transcribed by Spidey255

 

Gtr I (E A D G) - 'Untitled'

 

Intro

Q=144

4/4

Gtr I

E S S +S S E Q Q E S S +S S E Q Q

|---------------------|---------------------|

|---------------------|---------------------|

|---------------3-----|---------------3-----|

|-5-5-5-(5)-5-1----3--|-5-5-5-(5)-5-1----3--|

 

 

E S S +S S E Q Q E S S +S S E Q Q

|---------------------|---------------------|

|---------------------|---------------------|

|---------------3-----|---------------3-----|

|-5-5-5-(5)-5-1----3--|-5-5-5-(5)-5-1----3--|

 

 

Verse

$

E S S +S S E Q Q E S S +S S E Q Q

||----------------------|---------------------|

||o---------------------|---------------------|

||o---------------3-----|---------------3-----|

||--5-5-5-(5)-5-1----3--|-5-5-5-(5)-5-1----3--|

 

 

E S S +S S E E S S +S S E E S S +S S E E E E E

|-----------------------------|-------------------------||

|-----------------------------|------------------------o||

|---------------------------3-|-----------------2-3-5--o||

|-1-1-1-(1)-1-1-1-1-1-(1)-1---|-3-3-3-(3)-3-3-3---------||

 

 

Chorus

1.

E E E E E E Q E S S +S S E E E E E

||------------------|------------------------||

||o-----------------|-----------------------o||

||o-----------------|---------------3-3-3-3-o||

||--5---5---5---5\--|-1-1-1-(1)-1-1----------||

 

 

2.

E S S +S S E E E E E E E E E E E Q

|-----------------------|------------------|

|-----------------------|------------------|

|-----------------------|------------------|

|-1-1-1-(1)-1-1-3-3-3-3-|-5---5---5---5\---|

 

 

To Coda

2/4

E S S +S S E E E E E E E E E E E E E E E E E

|-----------------------|-----------------|---------|

|-----------------------|-----------------|---------|

|---------------3-3-3-3-|---------5-5-5-5-|---------|

|-1-1-1-(1)-1-1---------|-3-3-3-3---------|-1-1-3-3-|

 

 

Guitar Solo

4/4

E S S +S S E Q Q E S S +S S E Q Q

|---------------------|---------------------|

|---------------------|---------------------|

|---------------3-----|---------------3-----|

|-5-5-5-(5)-5-1----3--|-5-5-5-(5)-5-1----3--|

 

 

D.S. al Coda

E S S +S S E Q Q E S S +S S E Q Q

|---------------------|---------------------|

|---------------------|---------------------|

|---------------3-----|---------------3-----|

|-5-5-5-(5)-5-1----3--|-5-5-5-(5)-5-1----3--|

 

 

Guitar Solo 2

&

E S S +S S E E E E E E S S +S S E E E E E

||------------------------|-------------------------||-|

||o-----------------------|------------------------o||-|

||o---------------3-3-3-3-|-5-5-5-(5)-5-5\---------o||-|

||--5-5-5-(5)-5-3---------|----------------1-1-3-3--||-|

 

 

E S S +S S E E E E E E S S +S S E E E E E

||------------------------|----------------------------||

||o-----------------------|---------------------------o||

||o---------------3-3-3-3-|-5-5-5-(5)-5-5-8-8-10-10---o||

||--5-5-5-(5)-5-3---------|----------------------------||

 

 

Bridge

E S S +S S E E E E E E S S +S S E E E E E

||------------------------|-----------------------|

||o-----------------------|-----------------------|

||o---------------3-3-----|---------------3-3-----|

||--5-5-5-(5)-5-1-----3-3-|-5-5-5-(5)-5-1-----3-3-|

 

 

E S S +S S E E E E E E S S +S S E E E E E

|-----------------------|------------------------||

|-----------------------|-----------------------o||

|-----------------------|-----------------------o||

|-1-1-1-(1)-1-1-1-1-1-1-|-3-3-3-(3)-3-3-3-3-3-3--||

 

 

Chorus

Q E E Q E E E E +Q H Q E E Q E E E E +Q H

|---------------|---------------|---------------|---------------|

|---------------|---------------|---------------|---------------|

|---------------|----------3----|---------------|---------------|

|----5-5----5-5-|---1-(1)-------|----5-5----5-5-|---1-(1)--3----|

 

 

2/4

E E E E E E Q E S S +S S E E E E E E E E E E E E E E E E E

|-----------------|-----------------------|-----------------|----------|

|-----------------|-----------------------|-----------------|----------|

|-----------------|---------------3-3-3-3-|---------5-5-5-5-|----------|

|-5---5---5---5\--|-1-1-1-(1)-1-1---------|-3-3-3-3---------|-1-1-3-3--|

 

 

4/4

E S S +S S E E E E E E S S +S S E E E E E

|-----------------------|-----------------------|

|-----------------------|-----------------------|

|-----------------------|---------------3-3-3-3-|

|-5-5-5-(5)-5-5-5-5-5-5-|-1-1-1-(1)-1-1---------|

 

 

E S S +S S E E E E E E S S +S S E E E E E

|-----------------------|-----------------------|

|-----------------------|-----------------------|

|-----------------------|-----------------------|

|-5-5-5-(5)-5-5-5-5-5-5-|-1-1-1-(1)-1-1-3-3-3-3-|

 

 

2/4

E S S +S S E E E E E E S S +S S E E E E E E E E E E E E E E E E E

|-----------------------|-----------------------|-----------------|----------|

|-----------------------|-----------------------|-----------------|----------|

|-----------------------|---------------3-3-3-3-|---------5-5-5-5-|----------|

|-5-5-5-(5)-5-5-5-5-5-5-|-1-1-1-(1)-1-1---------|-3-3-3-3---------|-1-1-3-3--|

 

 

Outro

4/4

E S S +S S E Q Q 4x W Q Q H

||-----------------------||----------|-------------*|

||o---------------------o||----------|-------------*|

||o---------------3-----o||----------|-------------*|

||--5-5-5-(5)-5-1----3---||-5--------|-5\----------*|

 

 

Duration Legend

---------------

W - whole; H - half; Q - quarter; E - 8th; S - 16th; T - 32nd; X - 64th; a - acciaccatura

+ - note tied to previous; . - note dotted; .. - note double dotted

Uncapitalized letters represent notes that are staccato (1/2 duration)

Irregular groupings are notated above the duration line

Duration letters will always appear directly above the note/fret number it represents the

duration for. Duration letters with no fret number below them represent rests. Multi-

bar rests are notated in the form Wxn, where n is the number of bars to rest for. Low

melody durations appear below the staff

 

Tablature Legend

----------------

h - hammer-on

p - pull-off

b - bend

pb - pre-bend

r - bend release (if no number after the r, then release immediately)

/\ - slide into or out of (from/to "nowhere")

s - legato slide

S - shift slide

- natural harmonic

[n] - artificial harmonic

n(n) - tapped harmonic

~ - vibrato

tr - trill

T - tap

TP - trem. picking

PM - palm muting

\n/ - tremolo bar dip; n = amount to dip

\n - tremolo bar down

n/ - tremolo bar up

/n\ - tremolo bar inverted dip

= - hold bend; also acts as connecting device for hammers/pulls

<> - volume swell (louder/softer)

x - on rhythm slash represents muted slash

o - on rhythm slash represents single note slash

 

Misc Legend

-----------

| - bar

|| - double bar

||o - repeat start

o|| - repeat end

*| - double bar (ending)

: - bar (freetime)

$ - Segno

& - Coda

Tempo markers - = BPM(8/16=s8/s16), where s8 = swing 8ths, s16 = swing 16ths

Return to my Bad Religion Bass Tabs page

The Tablature is Copyright its respective owners.

Sign Up For My Newsletter
Subscribe | Unsubscribe

Site Map | Disclaimer | Privacy Policy | Media Kit | Submissions/Corrections

Website © 2000-2014 mattsmusicpage.com. All rights reserved.

Legal & DMCA: Matt's Music Page has been providing lyrics and tabs in a legal way, paying royalties each year to a few organizations. Then, all lyrics and tabs were removed from the site. Now, there's a new owner to the site, which purchased it August 26, 2014, and he is in negotiation to obtain licensing from BMI at the moment. If you have a specific DMCA request -- please do not hesitate to contact me via the contact button on top. I will do my very best to keep this site fully legal.

Get our toolbar!

 

Starbucks You Are Here Coffee Mug/Cup KENTUCKY - Horses, Banjo, Blue, White
$19.99
Starbucks You Are Here Coffee Mug/Cup KENTUCKY - Horses, Banjo, Blue, White picture


KNOWLES ROCKWELL HERITAGE "THE BANJO PLAYER" FIRST EDITION 1989 PLATE COA
$5.99
KNOWLES ROCKWELL HERITAGE


Vintage Postcard 1981 Disney World Banjo Kings Main Street USA 1981 Postmark
$4.99
 Vintage Postcard 1981 Disney World Banjo Kings Main Street USA 1981 Postmark picture


Banjo Barometer With Thermometer Hygrometer 490mm
$84.76
Banjo Barometer With Thermometer Hygrometer 490mm picture


ANTIQUE JAPANESE NIPPON FIGURINE SET OF 3 WOMEN GEISHA PLAYING DRUM BANJO FAN
$24.0
ANTIQUE JAPANESE NIPPON FIGURINE SET OF 3 WOMEN GEISHA PLAYING DRUM BANJO FAN picture