Your One-Stop Source For
Music Lyrics
Bass and Guitar Tabs
and More...
Music Lyrics Bass and Guitar Tabs

 

The Tabs Are Below

Learn To Read Tab
Chords Handbook
Corrections & Additions
Get Official Tab
Bad Religion tabs @ 911Tabs

Quality or Quantity - Bad Religion

-------------------------------------------------------------------------------

 

Ryan

suffer16@pacbell.net

 

I think this is right - if it isn't, well, who cares? It's close enough.

 

 

INTRO

3x 1x

|-------------------------| |-------|

|-------------------------| |-------|

|-7-7-7---7---------------| |----10-|

|-7-7-7---7---8-8-8---8---| |-10-10-|

|-5-5-5---5---8-8-8---8---| |-10-8--|

|-------------6-6-6---6---| |-8-----|

 

VERSE 1

4x

|---------------------------------------------------------------|

|---------------------------------------------------------------|

|-7---7-7-7-7-7-7-------5---5-5-5---7---7-7-7-7-7-7--3-----5----|

|-7---7-7-7-7-7-7-3-3-3-5---5-5-5---7---7-7-7-7-7-7--3--3--5--5-|

|-5---5-5-5-5-5-5-3-3-3-3---3-3-3---5---5-5-5-5-5-5--1--3--3--5-|

|-----------------1-1-1---------------------------------1-----3-|

 

(Watch for tempo change here)

Verse 2

3x

|-----------------------------------------------|

|-----------------------------------------------|

|-7-7-7---7-10-10-10--10--------------7-7-7---7-|

|-7-7-7---7-10-10-10--10-10-10-10--10-7-7-7---7-|

|-5-5-5---5-8--8--8---8--10-10-10--10-5-5-5---5-|

|------------------------8--8--8---8------------|

 

1x

|------------------------------------------------|

|------------------------------------------------|

|-7-7-7---7-10-10-10--10-------------------------|

|-7-7-7---7-10-10-10--10-8-8-8---8-10-10-10---10-|

|-5-5-5---5-8--8--8---8--8-8-8---8-10-10-10---10-|

|------------------------6-6-6---6-8--8--8----8--|

 

 

Chorus

3x 1x

|-------------------------| |-------|

|-------------------------| |-------|

|-7-7-7---7---------------| |----10-|

|-7-7-7---7---8-8-8---8---| |-10-10-|

|-5-5-5---5---8-8-8---8---| |-10-8--|

|-------------6-6-6---6---| |-8-----|

 

 

VERSE 1

4x

|---------------------------------------------------------------|

|---------------------------------------------------------------|

|-7---7-7-7-7-7-7-------5---5-5-5---7---7-7-7-7-7-7--3-----5----|

|-7---7-7-7-7-7-7-3-3-3-5---5-5-5---7---7-7-7-7-7-7--3--3--5--5-|

|-5---5-5-5-5-5-5-3-3-3-3---3-3-3---5---5-5-5-5-5-5--1--3--3--5-|

|-----------------1-1-1---------------------------------1-----3-|

 

(Watch for tempo change here)

Verse 2

3x

|-----------------------------------------------|

|-----------------------------------------------|

|-7-7-7---7-10-10-10--10--------------7-7-7---7-|

|-7-7-7---7-10-10-10--10-10-10-10--10-7-7-7---7-|

|-5-5-5---5-8--8--8---8--10-10-10--10-5-5-5---5-|

|------------------------8--8--8---8------------|

 

1x

|------------------------------------------------|

|------------------------------------------------|

|-7-7-7---7-10-10-10--10-------------------------|

|-7-7-7---7-10-10-10--10-8-8-8---8-10-10-10---10-|

|-5-5-5---5-8--8--8---8--8-8-8---8-10-10-10---10-|

|------------------------6-6-6---6-8--8--8----8--|

 

 

Chorus/Outro

3x 1x

|-------------------------| |-------------||

|-------------------------| |-------------||

|-7-7-7---7---------------| |----10-7-7-7-||

|-7-7-7---7---8-8-8---8---| |-10-10-7-7-7-||

|-5-5-5---5---8-8-8---8---| |-10-8--5-5-5-||

|-------------6-6-6---6---| |-8-----------||

 

 

*Repeat Chorus/Outro 4x. Enjoy.

 

 

Offer me eternity,

And I'll trade a cup of coffee and a dime,

Looking for a handout on behalf of those who have so little time,

But who wants to live on just 70 cents a day?

Padding your pockets doesn't make this a better place,

"Cereal and water" is a feast for some you say,

Your price-tag on existence can't cover your double-face

 

Quality or quantity: a choice you have to make

 

Dipping in the icing,

Bringing home he largest turkey from the field,

Breaking all the piggy banks,

Scooping up the booty,

Licking all the right holes,

Bolstering the payroll,

Why reduce life to a dollar amount per day?

And why let the world think

This is the American way,

Your uneaten greens are a feast for

Some you say,

Survival and living are concepts

You can't equate

 

Quality or quantity, don't tell me they're the same

 

 

 

Return to my Bad Religion tabs page

The Tablature is Copyright its respective owners.

Sign Up For My Newsletter
Subscribe | Unsubscribe

Site Map | Disclaimer | Privacy Policy | Media Kit | Submissions/Corrections

Website © 2000-2014 mattsmusicpage.com. All rights reserved.

Legal & DMCA: Matt's Music Page has been providing lyrics and tabs in a legal way, paying royalties each year to a few organizations. Then, all lyrics and tabs were removed from the site. Now, there's a new owner to the site, which purchased it August 26, 2014, and he is in negotiation to obtain licensing from BMI at the moment. If you have a specific DMCA request -- please do not hesitate to contact me via the contact button on top. I will do my very best to keep this site fully legal.

Get our toolbar!