Your One-Stop Source For
Music Lyrics
Bass and Guitar Tabs
and More...
>Music Lyrics Bass and Guitar Tabs

 

The Bad Religion Bass Tabs Are Below

Learn To Read Tab
Chords Handbook
Corrections & Additions
Get Official Tab
Bad Religion tabs @ 911Tabs

PRODIGAL SON (Bassline)

As recorded by Bad Religion

(From the 2007 Album NEW MAPS OF HELL)

 

Transcribed by Whoabot

 

Words and Music by Bad Religion

Arranged by Bad Religion

 

Gtr I (E A D G) - 'Untitled'

 

Intro

Q=189

2/2

Gtr I

PM--| PM--| PM--| PM--|

|-3-| |-3-| |-3-| |-3-|

Q E E E Q E E E Q E E E Q E E E

|-------------------|-------------------|

|-------------------|-------------------|

|-------------------|-------------------|

|-3--3-3-3-3--3-3-3-|-3--3-3-3-3--3-3-3-|

 

 

PM--| PM--| PM--| PM--|

|-3-| |-3-| |-3-| |-3-|

Q E E E Q E E E Q E E E Q E E E

|-------------------|---------------------|

|-------------------|---------------------|

|-6--6-6-6-6--6-6-6-|-6--6-6-6-6----------|

|-------------------|-------------3-3-3---|

 

 

4/4

PM--| PM--| PM| PM----|

|-3-| |-3-|

Q E E E Q E E E Q E E E E Q W +H E E E E

|-------------------||---------------||----------|------------------||

|-------------------||---------------||-0--------|-(0)----x-x-x-x---||

|-------------------||---------------||----------|------------------||

|-3--3-3-3-3--3-3-3-||-3--3-3-3-2-0--||----------|------------------||

 

 

Verse

E E E E E E E E E E E E E E E E E E E E E E E E E E E E E E E E

||------------------|-----------------|-----------------|------------------|

||o-0-0-0-0-0-0-0-0-|-0-0-0-0-0-0-0-0-|-0-0-0-0-0-0-0-0-|-0-0-0-0-0--------|

||o-----------------|-----------------|-----------------|-----------3-2-0--|

||------------------|-----------------|-----------------|------------------|

 

 

E E E E E E E E E E E E E E E E E E E E E E E E E E E E E E E E

|-----------------|-----------------|-----------------|------------------||

|-----------------|-----------------|-----------------|-----------------o||

|-----------------|-----------------|-----------------|-----------0-2h3-o||

|-3-3-3-3-3-3-3-3-|-3-3-3-3-3-3-3-3-|-0-0-0-0-0-0-0-0-|-0-0-0-0-3--------||

 

 

Pre-Chorus

E E E E E E E E E E E E E E E E E E E E E E E E E E E E E E E E

|-----------------|-----------------|-----------------|-----------------|

|-----------------|-----------------|-----------------|-----------------|

|-3-3-3-3-3-3-3-3-|-----------------|-5-5-5-5-5-5-5-5-|-7-7-7-7-7-7-7-7-|

|-----------------|-3-3-3-3-3-3-3-3-|-----------------|-----------------|

 

 

E E E E E E E E E E E E E E E E E E E E E E Q +E E Q Q Q

|-----------------|-----------------|----------------|----------------|

|-----------------|-----------------|----------------|----------------|

|-3-3-3-3-3-3-3-3-|-----------------|-5-5-5-5-5-5----|----------------|

|-----------------|-3-3-3-3-3-3-3-3-|-------------3--|-(3)-3-3--3--3--|

 

 

Q Q Q Q Q Q Q Q Q E E Q E E Q E E E E E E

|-------------|-------------|---------------|----------------||

|-------------|-------------|---------------|----------------||

|-3--2--3--4--|-5--3--2--0--|---------------|----------------||

|-------------|-------------|-3--3-3-2--2-2-|-0--0-0-0-0-0-0-||

 

 

Chorus

Half-Time Feel Q=96

E E E E E E E E E E E E E E E E E E E E E E E E

|-----------------|-----------------|-----------------|

|-----------------|-----------------|-----------------|

|-----------------|-5-5-5-5-5-3-2-0-|-----------------|

|-5-5-5-5-5-5-5-5-|-----------------|-3-3-3-3-2-2-2-2-|

 

 

E E E E E E E E E E E E E E E E E E E E E E E E

|-----------------|-----------------|-----------------||

|-----------------|-----------------|-----------------||

|-----------------|-----------------|-5-5-5-5-5-5-5-5-||

|-0-0-0-0-0-2-3-4-|-5-5-5-5-5-5-5-5-|-----------------||

 

 

Pre-Verse

Original Feel Q=189

E E E E E E E E E E E E E E E E E E E E E E E E E E E E E E E E

|-----------------|-----------------|-----------------|------------------|

|-----------------|-----------------|-----------------|------------------|

|-----------------|-----------------|-6-6-6-6-6-6-6-6-|-6-6-6-6-6-6-6-6--|

|-3-3-3-3-3-3-3-3-|-3-3-3-3-3-3-3-3-|-----------------|------------------|

 

 

PM----|

E E E E E E E E E E E E E E Q W +H E E E E

|-----------------||----------------|----------|-----------------||

|-----------------||----------------|-0--------|-(0)----x-x-x-x--||

|-----------------||----------------|----------|-----------------||

|-3-3-3-3-3-3-3-3-||-3-3-3-3-3-2-0--|----------|-----------------||

 

 

Verse

E E E E E E E E E E E E E E E E E E E E E E E E E E E E E E E E

||------------------|-----------------|-----------------|------------------|

||o-0-0-0-0-0-0-0-0-|-0-0-0-0-0-0-0-0-|-0-0-0-0-0-0-0-0-|-0-0-0-0-0--------|

||o-----------------|-----------------|-----------------|-----------3-2-0--|

||------------------|-----------------|-----------------|------------------|

 

 

E E E E E E E E E E E E E E E E E E E E E E E E E E E E E E E E

|-----------------|-----------------|-----------------|------------------||

|-----------------|-----------------|-----------------|-----------------o||

|-----------------|-----------------|-----------------|-----------0-2h3-o||

|-3-3-3-3-3-3-3-3-|-3-3-3-3-3-3-3-3-|-0-0-0-0-0-0-0-0-|-0-0-0-0-3--------||

 

 

Pre-Chorus

E E E E E E E E E E E E E E E E E E E E E E E E E E E E E E E E

|-----------------|-----------------|-----------------|-----------------|

|-----------------|-----------------|-----------------|-----------------|

|-3-3-3-3-3-3-3-3-|-----------------|-5-5-5-5-5-5-5-5-|-7-7-7-7-7-7-7-7-|

|-----------------|-3-3-3-3-3-3-3-3-|-----------------|-----------------|

 

 

E E E E E E E E E E E E E E E E E E E E E E Q +E E Q Q Q

|-----------------|-----------------|----------------|----------------|

|-----------------|-----------------|----------------|----------------|

|-3-3-3-3-3-3-3-3-|-----------------|-5-5-5-5-5-5----|----------------|

|-----------------|-3-3-3-3-3-3-3-3-|-------------3--|-(3)-3-3--3--3--|

 

 

Q Q Q Q Q Q Q Q Q E E Q E E Q E E E E E E

|-------------|-------------|---------------|----------------||

|-------------|-------------|---------------|----------------||

|-3--2--3--4--|-5--3--2--0--|---------------|----------------||

|-------------|-------------|-3--3-3-2--2-2-|-0--0-0-0-0-0-0-||

 

 

Chorus

Half-Time Feel Q=96

E E E E E E E E E E E E E E E E E E E E E E E E E E E E E E E E

|-----------------|-----------------|-----------------|-----------------|

|-----------------|-----------------|-----------------|-----------------|

|-----------------|-5-5-5-5-5-3-2-0-|-----------------|-----------------|

|-5-5-5-5-5-5-5-5-|-----------------|-3-3-3-3-2-2-2-2-|-0-0-0-0-0-2-3-4-|

 

 

E E E E E E E E E E E E E E E E E E E E E E E E E E E E E E E E

|-----------------|-----------------|-----------------|-----------------||

|-------------5---|-----------------|-----------------|-----------------||

|---------------7-|-5-5-5-5-5-5-5-5-|-----------------|---------2---2-3-||

|-5-5-5-5-5-5-----|-----------------|-3-3-3-3-3-3-3-3-|-3-3-3-3---3-----||

 

 

nterlude

E E E E E E E E E E E E E E E E E E E E E E E E E E E E E E E E

|-----------------|-----------------|-----------------|-----------------|

|-----------------|-----------------|-----------------|-----------------|

|-5-5-5-5-5-5-5-5-|-5-5-5-5-5-5-5-0-|-----------------|---------2---2-3-|

|-----------------|-----------------|-3-3-3-3-3-3-3-3-|-3-3-3-3---3-----|

 

 

E E E E E E E E E E E E E E E E E E E E E E E E E E E E E E E E

|-----------------|-----------------|-----------------|-----------------|

|-----------------|-----------------|-----------------|-----------------|

|-5-5-5-5-5-5-5-5-|-5-5-5-5-5-3-2-0-|-----------------|-----------0-2-3-|

|-----------------|-----------------|-3-3-3-3-3-3-3-2-|-0-0-0-0-3-------|

 

 

E E E E E E E E E E E E E E E E E E E E E E E E

|-----------------|-----------------|-----------------|

|-----------------|-----------------|-----------------|

|-3-3-3-3-5-5-5-5-|-----------0-1-2-|-3-3-3-0-5-5-5-5-|

|-----------------|-3-3-3-3-3-------|-----------------|

 

 

E E E E E E E E E E E E E E E E E E E E E E E E

|-----------------|-----------------|-----------------||

|-----------------|-----------------|-----------------||

|-----------------|-3-2-3-4-5-3-2-0-|-----------------||

|-3-3-3-3-3-3-3-3-|-----------------|-3-3-2-2-0-0-0-0-||

 

 

Out-Chorus

E E E E E E E E E E E E E E E E E E E E E E E E E E E E E E E E

|-----------------|-----------------|-----------------|-----------------|

|-----------------|-----------------|-----------------|-----------------|

|-----------------|-5-5-5-5-5-5-5-5-|-----------------|-----------------|

|-5-5-5-5-5-5-5-5-|-----------------|-3-3-3-3-2-2-2-2-|-0-0-0-0-0-0-0-0-|

 

 

E E E E E E E E E E E E E E E E W +W 4x

|-----------------|-----------------|----------||----------||

|-----------------|-----------------|----------||o--------o||

|-------------3-3-|-5-5-5-5-5-5-5-5-|----------||o--------o||

|-5-5-5-5-5-5-----|-----------------|-3--------||--(3)-----||

 

 

 

Duration Legend

---------------

W - whole; H - half; Q - quarter; E - 8th; S - 16th; T - 32nd; X - 64th; a - acciaccatura

+ - note tied to previous; . - note dotted; .. - note double dotted

Uncapitalized letters represent notes that are staccato (1/2 duration)

Irregular groupings are notated above the duration line

Duration letters will always appear directly above the note/fret number it represents the

duration for. Duration letters with no fret number below them represent rests. Multi-

bar rests are notated in the form Wxn, where n is the number of bars to rest for. Low

melody durations appear below the staff

 

Tablature Legend

----------------

h - hammer-on

p - pull-off

b - bend

pb - pre-bend

r - bend release (if no number after the r, then release immediately)

/\ - slide into or out of (from/to "nowhere")

s - legato slide

S - shift slide

- natural harmonic

[n] - artificial harmonic

n(n) - tapped harmonic

~ - vibrato

tr - trill

T - tap

TP - trem. picking

PM - palm muting

\n/ - tremolo bar dip; n = amount to dip

\n - tremolo bar down

n/ - tremolo bar up

/n\ - tremolo bar inverted dip

= - hold bend; also acts as connecting device for hammers/pulls

<> - volume swell (louder/softer)

x - on rhythm slash represents muted slash

o - on rhythm slash represents single note slash

 

Misc Legend

-----------

| - bar

|| - double bar

||o - repeat start

o|| - repeat end

*| - double bar (ending)

: - bar (freetime)

$ - Segno

& - Coda

Tempo markers - = BPM(8/16=s8/s16), where s8 = swing 8ths, s16 = swing 16ths

Return to my Bad Religion Bass Tabs page

The Tablature is Copyright its respective owners.

Sign Up For My Newsletter
Subscribe | Unsubscribe

Site Map | Disclaimer | Privacy Policy | Media Kit | Submissions/Corrections

Website © 2000-2014 mattsmusicpage.com. All rights reserved.

Legal & DMCA: Matt's Music Page has been providing lyrics and tabs in a legal way, paying royalties each year to a few organizations. Then, all lyrics and tabs were removed from the site. Now, there's a new owner to the site, which purchased it August 26, 2014, and he is in negotiation to obtain licensing from BMI at the moment. If you have a specific DMCA request -- please do not hesitate to contact me via the contact button on top. I will do my very best to keep this site fully legal.

Get our toolbar!

 

Charming Tails “I’m Moo-ved By You” Mouse Drumming by Bull Cow 87/253
$0.99
Charming Tails “I’m Moo-ved By You” Mouse Drumming by Bull Cow 87/253 picture


1938 Cub Boy Scout Drum and Bugle Corps Photograph Atlanta Historic Photograph
$9.99
1938 Cub Boy Scout Drum and Bugle Corps Photograph Atlanta Historic Photograph  picture


Haviland Limoges France Twelve Drummers Drumming Christmas Plate w/ Wall Mount
$59.95
Haviland Limoges France Twelve Drummers Drumming Christmas Plate w/ Wall Mount picture


NEW Hello Kitty Fun in a drum Tambourinette Harmonica Ocarina ETC
$29.99
NEW Hello Kitty Fun in a drum Tambourinette Harmonica Ocarina ETC picture


Xmas Gift* DRUM STICKS KEY RING - GIFT FOR ANY DRUMMER DRUMSTICK KEYRING CHAIN
$7.64
Xmas Gift* DRUM STICKS KEY RING - GIFT FOR ANY DRUMMER DRUMSTICK KEYRING CHAIN picture