Your One-Stop Source For
Music Lyrics
Bass and Guitar Tabs
and More...
Music Lyrics Bass and Guitar Tabs

 

The Bad Religion Bass Tabs Are Below

Learn To Read Tab
Chords Handbook
Corrections & Additions
Get Official Tab
Bad Religion tabs @ 911Tabs

MURDER (Bassline)

As recorded by Bad Religion

(From the 2007 Album NEW MAPS OF HELL)

 

Transcribed by Whoabot

 

Words and Music by Bad Religion

Arranged by Bad Religion

 

Gtr I (E A D G) - 'Untitled'

 

Intro

Q=203

4/4

Gtr I

Wx4

|--------|

|--------|

|--------|

|--------|

 

 

E E E E E E E E E E E E E E E E E E E E E E E E E E E E E E E E

|-----------------|-----------------|-----------------|------------------||

|-----------------|-----------------|-----------------|------------------||

|-----------------|-----------------|-----------------|------------------||

|-5-5-5-5-5-5-5-5-|-5-5-5-5-5-5-5-5-|-5-5-5-5-5-5-5-5-|-5-5-5-5-5-5-5-5--||

 

 

Verse

E Q E E Q E E Q E E Q E E Q E E Q E E Q E E Q E

||----------------|---------------|---------------|----------------||

||o---------------|---------------|---------------|---------------o||

||o--------6-6--6-|--------8-8--8-|--------6-6--6-|--------8-8--8-o||

||--5-5--5--------|-6-6--6--------|-5-5--5--------|-6-6--6---------||

 

 

horus

E E E E E E E E E E E E E E E E E E E E E E E E E E E E E E E E

|-----------------|-----------------|-----------------|------------------|

|-----------------|-----------------|-----------------|------------------|

|-5-5-5-5-5-5-5-5-|-5-5-5-5-5-5-5-5-|-----------------|------------------|

|-----------------|-----------------|-5-5-5-5-5-5-5-5-|-5-5-5-5-5-5-5-5--|

 

 

E E E E E E E E E E E E E E E E E E E E E E E E E E E E E E E E

|-----------------|-----------------|-----------------|------------------|

|-----------------|-----------------|-----------------|------------------|

|-----------------|-----------------|-----------------|-----------3-4-5--|

|-6-6-6-6-6-6-6-6-|-6-6-6-6-6-6-6-6-|-1-1-1-1-1-1-1-1-|-1-1-1-1-1--------|

 

 

+E E E E E E E E E E E E E E E E E E E E E E E E E E E E E E E E

|-------------------|-----------------|-----------------|------------------|

|-------------------|-----------------|-----------------|------------------|

|-(5)-5-5-5-5-5-5-5-|-5-5-5-5-5-5-5-5-|-----------------|------------------|

|-------------------|-----------------|-5-5-5-5-5-5-5-5-|-5-5-5-5-5-5-5-5--|

 

 

E E E E E E E E E E E E E E E E E E E E E E E E E E E E E E E E

|-----------------|-----------------|-----------------|------------------||

|-----------------|-----------------|-----------------|------------------||

|-----------------|-8-8-8-8-8-8-8-8-|-----------------|------------------||

|-6-6-6-6-6-6-6-6-|-----------------|-8-8-8-8-8-8-8-8-|-8-8-8-8-8-8-8-8--||

 

 

Guitar Solo

E Q E E Q E E Q E E Q E E Q E E Q E E Q E E Q E

|---------------|---------------|---------------|----------------||

|---------------|---------------|---------------|----------------||

|--------6-6--6-|--------8-8--8-|--------6-6--6-|--------8-8--8--||

|-5-5--5--------|-6-6--6--------|-5-5--5--------|-6-6--6---------||

 

 

Verse

E Q E E Q E E Q E E Q E E Q E E Q E E Q E E Q E

||----------------|---------------|---------------|----------------||

||o---------------|---------------|---------------|---------------o||

||o--------6-6--6-|--------8-8--8-|--------6-6--6-|--------8-8--8-o||

||--5-5--5--------|-6-6--6--------|-5-5--5--------|-6-6--6---------||

 

 

Out-Chorus

E E E E E E E E E E E E E E E E E E E E E E E E E E E E E E E E

|-----------------|-----------------|-----------------|------------------|

|-----------------|-----------------|-----------------|------------------|

|-5-5-5-5-5-5-5-5-|-5-5-5-5-5-5-5-5-|-----------------|------------------|

|-----------------|-----------------|-5-5-5-5-5-5-5-5-|-5-5-5-5-5-5-5-5--|

 

 

E E E E E E E E E E E E E E E E E E E E E E E E E E E E E E E E

|-----------------|-----------------|-----------------|------------------|

|-----------------|-----------------|-----------------|------------------|

|-----------------|-----------------|-----------------|-----------3-4-5--|

|-6-6-6-6-6-6-6-6-|-6-6-6-6-6-6-6-6-|-1-1-1-1-1-1-1-1-|-1-1-1-1-1--------|

 

 

+E E E E E E E E E E E E E E E E E E E E E E E E E E E E E E E E

|-------------------|-----------------|-----------------|------------------|

|-------------------|-----------------|-----------------|------------------|

|-(5)-5-5-5-5-5-5-5-|-5-5-5-5-5-5-5-5-|-----------------|------------------|

|-------------------|-----------------|-5-5-5-5-5-5-5-5-|-5-5-5-5-5-5-5-5--|

 

 

E E E E E E E E E E E E E E E E E E E E E E E E E E E E E E E E

|-----------------|-----------------|-----------------|------------------||

|-----------------|-----------------|-----------------|------------------||

|-----------------|-8-8-8-8-8-8-8-8-|-----------------|------------------||

|-6-6-6-6-6-6-6-6-|-----------------|-8-8-8-8-8-8-8-8-|-8-8-8-8-8-8-8-8--||

 

 

Outro

E E E E E E E E 4x H H W

||-------------------||------------|------*|

||o-----------------o||------------|------*|

||o-5-5---5-5-5---5-o||-5\---------|------*|

||-------------------||------------|------*|

 

 

 

Duration Legend

---------------

W - whole; H - half; Q - quarter; E - 8th; S - 16th; T - 32nd; X - 64th; a - acciaccatura

+ - note tied to previous; . - note dotted; .. - note double dotted

Uncapitalized letters represent notes that are staccato (1/2 duration)

Irregular groupings are notated above the duration line

Duration letters will always appear directly above the note/fret number it represents the

duration for. Duration letters with no fret number below them represent rests. Multi-

bar rests are notated in the form Wxn, where n is the number of bars to rest for. Low

melody durations appear below the staff

 

Tablature Legend

----------------

h - hammer-on

p - pull-off

b - bend

pb - pre-bend

r - bend release (if no number after the r, then release immediately)

/\ - slide into or out of (from/to "nowhere")

s - legato slide

S - shift slide

- natural harmonic

[n] - artificial harmonic

n(n) - tapped harmonic

~ - vibrato

tr - trill

T - tap

TP - trem. picking

PM - palm muting

\n/ - tremolo bar dip; n = amount to dip

\n - tremolo bar down

n/ - tremolo bar up

/n\ - tremolo bar inverted dip

= - hold bend; also acts as connecting device for hammers/pulls

<> - volume swell (louder/softer)

x - on rhythm slash represents muted slash

o - on rhythm slash represents single note slash

 

Misc Legend

-----------

| - bar

|| - double bar

||o - repeat start

o|| - repeat end

*| - double bar (ending)

: - bar (freetime)

$ - Segno

& - Coda

Tempo markers - = BPM(8/16=s8/s16), where s8 = swing 8ths, s16 = swing 16ths

Return to my Bad Religion Bass Tabs page

The Tablature is Copyright its respective owners.

Sign Up For My Newsletter
Subscribe | Unsubscribe

Site Map | Disclaimer | Privacy Policy | Media Kit | Submissions/Corrections

Website © 2000-2014 mattsmusicpage.com. All rights reserved.

Legal & DMCA: Matt's Music Page has been providing lyrics and tabs in a legal way, paying royalties each year to a few organizations. Then, all lyrics and tabs were removed from the site. Now, there's a new owner to the site, which purchased it August 26, 2014, and he is in negotiation to obtain licensing from BMI at the moment. If you have a specific DMCA request -- please do not hesitate to contact me via the contact button on top. I will do my very best to keep this site fully legal.

Get our toolbar!