Your One-Stop Source For
Music Lyrics
Bass and Guitar Tabs
and More...
Music Lyrics Bass and Guitar Tabs

 

The Tabs Are Below

Learn To Read Tab
Chords Handbook
Corrections & Additions
Get Official Tab
Bad Religion tabs @ 911Tabs

MILLION DAYS

 

Intro chords:

A Em C G D

 

D Em G

when you're sitting alone, frown and groan

C A

over your bad day

D Em

when you're laughing with peers

G C A

forget your years, then be on your way

E Am D

but don't forget, all the while

A G D C

that you've crossed the social mile

 

B:---1---0---|

 

A Em C G D

and a million days is worth one good laugh

 

solo:

e:-----------------------------------------------------------------------|

B:------------3--------------------------------------------------15------|

G:---------2-----2-----------------------------------2--------14----14---|

D:---4--5-----------5--4--2--2--4--0--0--4--5--0--4-----16-17------------|

A:-----------------------------------------------------------------------|

E:-----------------------------------------------------------------------|

 

e:--------------------------------------------|

B:--------------------------------------------|

G:------------------------------------14b16---|

D:---17-16-14-14h16-------16-17----16---------|

A:------------------17-17-------17------------|

E:--------------------------------------------|

 

but don't forget, all the while

that you've passed the social mile

 

and a million days is worth one good laugh...

 

 

 

 

Return to my Bad Religion tabs page

The Tablature is Copyright its respective owners.

Sign Up For My Newsletter
Subscribe | Unsubscribe

Site Map | Disclaimer | Privacy Policy | Media Kit | Submissions/Corrections

Website © 2000-2014 mattsmusicpage.com. All rights reserved.

Legal & DMCA: Matt's Music Page has been providing lyrics and tabs in a legal way, paying royalties each year to a few organizations. Then, all lyrics and tabs were removed from the site. Now, there's a new owner to the site, which purchased it August 26, 2014, and he is in negotiation to obtain licensing from BMI at the moment. If you have a specific DMCA request -- please do not hesitate to contact me via the contact button on top. I will do my very best to keep this site fully legal.

Get our toolbar!