Your One-Stop Source For
Music Lyrics
Bass and Guitar Tabs
and More...
Music Lyrics Bass and Guitar Tabs

 

The Tabs Are Below

Learn To Read Tab
Chords Handbook
Corrections & Additions
Get Official Tab
Bad Religion tabs @ 911Tabs

MARKED

 

Tabbed by ANT

Well,it's Mr. Smug back to tell everyone else that they're wrong. What can I

say,I'm an asshole.

Anyway,here's the song:

 

Tune your guitar to E-flat (a lot of the album is done this way)

 

Intro: F# G# A B (3x) F# G# A E

 

 

 

F# A B F# E

If I'm a monster, I am a willing one

F# A B F# E

this rollercoaster ride is an enticing one

F# A E B

on the tip of a continuum flowing wavelike through disorder,

F# A B C#

carrying me like a vessel to water.

 

F# D A E

Everything you see leaves a mark on your soul,

F# D A E

everything you feel leaves a mark on your soul,

F# D A E

everything you touch leaves a mark on your soul,

F# D A F# G# A B(intro)

Everything you make leaves a mark on your soul.

 

F# A B F# E

If I can touch it, I can destroy it.

F# A B F# E

If it's imaginable to some degree, I can become it.

F# A E B

Like a hungry fucking vortex that just flickers to existence,

F# B A C#

consuming bits and pieces until I'm finally extinguished.

 

 

Everyone you see leaves a mark on your soul,

 

everyone you bare leaves a mark on your soul,

 

everyone you touch leaves a mark on your soul,

F# G# A B (*2)

everyone you love leaves a mark on your soul.

 

 

Play verse over solo

 

E-------14-------14-------14-------14-------14-------14-------14-------14

B-12/14----12/14----12/14----12/14----12/14----12/14----12/14----12/14---

G------------------------------------------------------------------------

D------------------------------------------------------------------------

A------------------------------------------------------------------------

E------------------------------------------------------------------------

 

E-------------------------------------------------9---9--9-9---9--9--9--9

B-14-12-10------10------10------10-12-10-12-10-12-12-10-12-10-12-10-12-10

G----------9h11----9h11----9h11------------------------------------------

D------------------------------------------------------------------------

A------------------------------------------------------------------------

E------------------------------------------------------------------------

 

E--9---------------------

B-12-12b14(hold)---------

G------------------------

D------------------------

A------------------------

E------------------------

 

 

 

Everything you take leaves a mark on your soul,

 

Everything you give leaves a mark on your soul,

 

and all the fear and loneliness that's impossible to control,

 

F# D A C#

and every tear you cry leaves a mark on your soul.

 

F#////

 

 

Return to my Bad Religion tabs page

The Tablature is Copyright its respective owners.

Sign Up For My Newsletter
Subscribe | Unsubscribe

Site Map | Disclaimer | Privacy Policy | Media Kit | Submissions/Corrections

Website © 2000-2014 mattsmusicpage.com. All rights reserved.

Legal & DMCA: Matt's Music Page has been providing lyrics and tabs in a legal way, paying royalties each year to a few organizations. Then, all lyrics and tabs were removed from the site. Now, there's a new owner to the site, which purchased it August 26, 2014, and he is in negotiation to obtain licensing from BMI at the moment. If you have a specific DMCA request -- please do not hesitate to contact me via the contact button on top. I will do my very best to keep this site fully legal.

Get our toolbar!

 

Buckwerx Pinball Machine Audio Adapter headphone for Stern The Rolling Stones
$89.95
Buckwerx Pinball Machine Audio Adapter headphone for Stern The Rolling Stones picture


Zippo 2697, Rolling Stones-Tongue Logo, High Polish Chrome Finish Lighter
$19.95
Zippo 2697, Rolling Stones-Tongue Logo, High Polish Chrome Finish Lighter picture


Quaker Oats Premiums Never Opened Rock Poster Searies, Rolling Stones
$9.99
Quaker Oats Premiums Never Opened Rock Poster Searies, Rolling Stones picture


Rock Band The ROLLING STONES Tour Portrait POSTCARD Mick Jagger Keith Richards
$4.99
Rock Band The ROLLING STONES Tour Portrait POSTCARD Mick Jagger Keith Richards picture


1967 ROLLING STONES color group portrait period photo
$8.5
1967 ROLLING STONES color group portrait period photo picture