Your One-Stop Source For
Music Lyrics
Bass and Guitar Tabs
and More...
Music Lyrics Bass and Guitar Tabs

 

The Tabs Are Below

Learn To Read Tab
Chords Handbook
Corrections & Additions
Get Official Tab
Bad Religion tabs @ 911Tabs

Let It Burn

 

Tabbed out by Patrick Dawson (wcdawson@optonline.net)

 

Questions? Comments? Corrections? Email me.

 

For "partial powerchords" I use a lowercase letter.

 

Example: D = x577xx

d = x57xxx

 

 

Song Format:

INTRO

VERSE1

CHORUS

VERSE2

CHORUS

SOLO

VERSE3

CHORUS

OUTRO

 

INTRO:

D F C G (7x)

D F C

 

VERSE 1:

ddd fff

Let your mind wander

ccc ddd

Look beyond the shadows

fff ccc

Focus on the skyline

ggg ddd

Read the silhouettes

ddd fff

Your deepest desires

ccc ddd

Are a picture of tomorrow

fff ccc

All your darkest fears

ggg ddd

are just a vestige of regret

 

 

CHORUS:

F C ddd cc dd

And it's wo-oh oh oh

F C ddd cc dd

It seems like such a long way to go

F C

As obstacles get bigger

G D

Prevailing winds blow stronger

G C ddd cc dd

And the fire continues to grow

fff ccc ddd cc dd

(The fire continues to grow)

 

 

VERSE 2:

ddd fff

Don't let shallow water

ccc ddd

Limit your perception

fff ccc

Heed the new horizon

ggg ddd

Muster to it fast

ddd fff

The moments of your yesterdays

ccc ddd

Are in the wake behind you

fff ccc

You can't assess the future

ggg ddd

if you're living in the past

 

 

SOLO:

 

(chords during solo are exactly the same as verse)

 

E|----------------------------------------------------------------10-|

A|-------------------------------------------------10--10-10-10-8----|

D|--------------------------------------10---10--7-------------------|

G|--7-7-9-7-9-7-10--7-7------9-7-7----7----7-------------------------|

B|----------------------10-8-----------------------------------------|

e|-------------------------------------------------------------------|

 

E|-------------------------------------------------------------------|

A|-------------------------------------------------------------------|

D|--12-12-12-10----12-14-12-10-9---10-10-10-8--10-8------------------|

G|----------------------------------------------------------10-7-----|

B|--15-15-15-13----15-17-15-13-12--13-13-13-11-13-11--10-8-----------|

e|-------------------------------------------------------------------|

 

 

VERSE 3: (palm-mute the chords in parentheses)

(ddd) fff

If you are committed

(ccc) ddd

To a life of understanding

(fff) ccc

Then there's no agenda

(ggg) ddd

For vengeance in your life

(ddd) fff

Sharpen all your senses

(ccc) ddd

Face the opposition

(fff) ccc

You can overcome

(ggg) ddd

With fortitude and mental might

 

 

OUTRO:

F C A# (see riff below)

The fire continues to grow

A

In your soul

C D F C G

So be bold, let it grow

D F C

Don't let it die

G D

Let it burn!

 

 

Outro Riff:

 

It seems that while one guitar is simply playing A# A C,

the other is doing this:

 

A# A C

E|----------------------------------------------|

A|-1-1------------0-0------------3-3------------|

D|-----3-3------------2-2------------5-5--------|

G|---------3-3------------2-2------------5-5----|

B|-------------3--------------1--------------5--|

e|----------------------------------------------|

 

 

Return to my Bad Religion tabs page

The Tablature is Copyright its respective owners.

Sign Up For My Newsletter
Subscribe | Unsubscribe

Site Map | Disclaimer | Privacy Policy | Media Kit | Submissions/Corrections

Website © 2000-2014 mattsmusicpage.com. All rights reserved.

Legal & DMCA: Matt's Music Page has been providing lyrics and tabs in a legal way, paying royalties each year to a few organizations. Then, all lyrics and tabs were removed from the site. Now, there's a new owner to the site, which purchased it August 26, 2014, and he is in negotiation to obtain licensing from BMI at the moment. If you have a specific DMCA request -- please do not hesitate to contact me via the contact button on top. I will do my very best to keep this site fully legal.

Get our toolbar!