Your One-Stop Source For
Music Lyrics
Bass and Guitar Tabs
and More...
>Music Lyrics Bass and Guitar Tabs

 

The Bad Religion Bass Tabs Are Below

Learn To Read Tab
Chords Handbook
Corrections & Additions
Get Official Tab
Bad Religion tabs @ 911Tabs

Tuning: Standard

 

 

Intro (x2):

 

G|---------------------------------------------------------------------------|

D|---------------------------------------------------------------------------|

A|--5-5-5-5--4-4-4-4-----------0-0-0-0--5-5-5-5--7-7-7-7-----------4-4-4-4---|

E|--------------------2-2-2-2-----------------------------5-5-5-5------------|

 

Verse:

 

G|---------------------------------------------------------------------------|

D|---------------------------------------------------------------------------|

A|--5-5-5-5--4-4-4-4---------------------------------------------------------|

E|--------------------2-2-2-2--1-1-1-1---------------------------------------|

 

Play that x4 and then play:

 

G|---------------------------------------------------------------------------|

D|---------------------------------------------------------------------------|

A|--5-5-5-5--4-4-4-4---------------------------------------------------------|

E|--------------------2-2-2-2--0-0-0-0---------------------------------------|

 

Chorus (x2):

 

G|-------------------------------------|-------------------------------------|

D|-------------------------------------|-------------------------------------|

A|--5-5-5-5--4-4-4-4-----------0-0-0-0-|-5-5-5-5--7-7-7-7-----------4-4-4-4--|

E|--------------------2-2-2-2----------|-------------------5-5-5-5-----------|

 

 

"Whooaaa oohhh":

 

G|-------------------------------------|-------------------------------------|

D|-------------------------------------|-------------------------------------|

A|--5-5-5-5--7-7-7-7-----------4-4-4-4-|--5-5-5-5--7-7-7-7-----------4-4-4-4-|

E|--------------------5-5-5-5----------|--------------------5-5-5-5----------|

 

G|-------------------------------------|-------------------------------------|

D|-------------------------------------|-------------------------------------|

A|--5-5-5-5--4-4-4-4-----------0-0-0-0-|-5-5-5-5--7-7-7-7-----------4-4-4-4--|

E|--------------------2-2-2-2----------|-------------------5-5-5-5-----------|

 

 

(Play the Verse again)

 

 

(Play the Chorus again)

 

 

Then play:

 

 

G|-------------------------------------|-------------------------------------|

D|-------------------------------------|-------------------------------------|

A|--5-5-5-5--7-7-7-7-----------4-4-4-4-|--5-5-5-5--7-7-7-7-----------4-4-4-4-|

E|--------------------5-5-5-5----------|--------------------5-5-5-5----------|

 

G|-------------------------------------|-------------------------------------|

D|-------------------------------------|-------------------------------------|

A|--5-5-5-5--4-4-4-4-----------0-0-0-0-|-5-5-5-5--7-7-7-7---0~---------------|

E|--------------------2-2-2-2----------|-------------------------------------|

 

 

And that's it! Enjoy!

Return to my Bad Religion Bass Tabs page

The Tablature is Copyright its respective owners.

Sign Up For My Newsletter
Subscribe | Unsubscribe

Site Map | Disclaimer | Privacy Policy | Media Kit | Submissions/Corrections

Website © 2000-2014 mattsmusicpage.com. All rights reserved.

Legal & DMCA: Matt's Music Page has been providing lyrics and tabs in a legal way, paying royalties each year to a few organizations. Then, all lyrics and tabs were removed from the site. Now, there's a new owner to the site, which purchased it August 26, 2014, and he is in negotiation to obtain licensing from BMI at the moment. If you have a specific DMCA request -- please do not hesitate to contact me via the contact button on top. I will do my very best to keep this site fully legal.

Get our toolbar!

 

Vtg Original Goldscheider Musical Porcelain Figurine Plays "Blue Danube"
$25.0
Vtg Original Goldscheider Musical Porcelain Figurine Plays


Vintage Olds Brass Sheet Music Holder for Horn or Woodwind Instrument
$17.95
Vintage Olds Brass Sheet Music Holder for Horn or Woodwind Instrument picture


VTG UNUSED SEARS ROEBUCK & CO FULL FLAT SHEET SLEEP MUSIC SNOW WHITE RARE
$15.99
VTG UNUSED SEARS ROEBUCK & CO FULL FLAT SHEET SLEEP MUSIC SNOW WHITE RARE picture


Vintage 1960s Lefton China Umbrella Boy and Girl Music Box 6 1/8" Tall
$24.0
Vintage 1960s Lefton China Umbrella Boy and Girl Music Box 6 1/8


Musical Revolving Christmas Carousel Holiday Treasures Vintage Wind Up
$39.0
Musical Revolving Christmas Carousel Holiday Treasures Vintage Wind Up picture