Your One-Stop Source For
Music Lyrics
Bass and Guitar Tabs
and More...
Music Lyrics Bass and Guitar Tabs

 

The Tabs Are Below

Learn To Read Tab
Chords Handbook
Corrections & Additions
Get Official Tab
Bad Religion tabs @ 911Tabs

The hippy killers-No substance

 

Tabbed by Jonatan Fried (jonatan.fried@stockholm.mail.telia.com)

 

This song is played with open chords, Hm becomes H5 and so on.

 

Verse:

 

Em CG

Our apocalypse 1981

Em C G

teenage vagrants looking for some fun

Em C G

a renewed promise of prosperity

Em C G

a vulgar platform for the world to see, we were

 

 

 

Chorus:

 

Em C G

e]-------------------

H]-------------------

G]-9-9-9-7-9---------

D]-9-9-9-7-9---------

A]-7-7-7-7-7--3-3-2--

E]------------------3

the hippy killers

Em C G

e]-------------------

H]-------------------

G]-9-9-9-7-9---------

D]-9-9-9-7-9---------

A]-7-7-7-7-7--3-3-2--

E]------------------3

the hippy killers

Em C G

e]-------------------

H]-------------------

G]-9-9-9-7-9---------

D]-9-9-9-7-9---------

A]-7-7-7-7-7--3-3-2--

E]------------------3

the hippy killers

Em C D

e]-------------------

H]-------------------

G]-9-9-9-7-9--5-7-9--

D]-9-9-9-7-9--5-7-9--

A]-7-7-7-7-7--3-5-7--

E]-------------------

the hippy killers

 

Middle riff

 

Em C G

e]-------------------

H]-------------------

G]-9-9-9-7-9---------

D]-9-9-9-7-9---------

A]-7-7-7-7-7--7-7-5-5

E]-------------------

Em C G

e]---------------------

H]---------------------

G]-9-9-9-7-9-----------

D]-9-9-9-7-9-----------

A]-7-7-7-7-7--10-10-9-5

E]---------------------

 

That's about it!

 

 

Return to my Bad Religion tabs page

The Tablature is Copyright its respective owners.

Sign Up For My Newsletter
Subscribe | Unsubscribe

Site Map | Disclaimer | Privacy Policy | Media Kit | Submissions/Corrections

Website © 2000-2014 mattsmusicpage.com. All rights reserved.

Legal & DMCA: Matt's Music Page has been providing lyrics and tabs in a legal way, paying royalties each year to a few organizations. Then, all lyrics and tabs were removed from the site. Now, there's a new owner to the site, which purchased it August 26, 2014, and he is in negotiation to obtain licensing from BMI at the moment. If you have a specific DMCA request -- please do not hesitate to contact me via the contact button on top. I will do my very best to keep this site fully legal.

Get our toolbar!