Your One-Stop Source For
Music Lyrics
Bass and Guitar Tabs
and More...
Music Lyrics Bass and Guitar Tabs

 

The Tabs Are Below

Learn To Read Tab
Chords Handbook
Corrections & Additions
Get Official Tab
Bad Religion tabs @ 911Tabs

Hear It

 

">" means slide up or down and a note in

parentheses means sustain until next note

 

Intro:

 

Guitar 1 C D G D

------------------------------------------------------------------------------

----------------------|

------------------------------------------------------------------------------

----------------------|

---4-4-4-4-4-4-4-4-5-5-5-5-5-5-5-5-7-7-7-7-7-7-7-7-12-12-12-12-7-7-7-7------|

---2-2-2-2-2-2-2-2-5-5-5-5-5-5-5-5-7-7-7-7-7-7-7-7-12-12-12-12-7-7-7-7------|

---0-0-0-0-0-0-0-0-3-3-3-3-3-3-3-3-5-5-5-5-5-5-5-5-10-10-10-10-5-5-5-5------|

------------------------------------------------------------------------------

----------------------|

 

Guitar 2 (all on "A" string)

--(0)------------------(3)----------->7---(5)---------------->(10)---------->(

5)-------------|

 

Guitar 3

etc.

E-5-5-5-5-5-5-5-5-8-8-8-8-8-8-8-8-10-10-10-10-10-10-10-10-10-10-10-10--|

B-5-5-5-5-5-5-5-5-8-8-8-8-8-8-8-8-10-10-10-10-10-10-10-10-10-10-10-10--|

 

2nd time play the "G" an octave lower

 

Verse 1:

A C

like a morning crow and his unwelcome song

G A

or a worn out broken record that keeps skipping along

A C

mountains of instructions you keep piling on me

G A

resound lke a cacophonous symphony but

F C G D A

I don't wanna hear it anymore

(D)--------------------------5-7-5--------

---------|

(A)--0-0-3-0-4-0-5-7-7---------7-5--------

----|

(E)---------------------------------------

8-5-------|

 

Solo #1:

A C G A

E---5-5-5-5-5-5-5-5-5-5-5-5-5-5-5-5-5-5-5-5-5-5-5-5-----------------------|

B---5-5-5-5-5-5-5-5-5-5-5-5-5-5-5-5-5-5-4-4-3-3-4-4-->5------------------|

G-------------------------------------------------------------------------2--2

----------|

 

A C G

A

E---5-5-5-5-5-5-5-5-8-8-8-8-8-8-8-8-17-17--17-17-------------------------17-|

B---5-5-5-5-5-5-5-5-8-8-8-8-8-8-8-8-17-17---------15-15-16-16-17-----17-|

G-----------------------------------------------------------------------------

------14-----|

 

Verse 2:

A C

priests and politicians pretend their your friends

G A

and police speak to you like you're children again

A C

blanket statements cover you like a rug

G A

and they tell me maybe I'm acting a little too smug

 

(repeat chorus)

 

INTERLUDE:

A C G D

ahhh ahhhhh ahhhh ahhhhh

 

Solo #2:

A C G D

E----5-5------5-5------5-5------5-5------5-5------5-5------5-5------5-5------|

B---------3-5------3-5------3-5------3-5------3-5------3-5------3-5------3-5-|

 

A C G D

E----5-5------5-5------5-5------5-5------5-5------5-5------5-5------5-5------|

B---------5-5------5-5------5-5------5-5------5-5------5-5------5-5------5-5-|

 

Verse 3:

A C

every day we hear the secrets of life

G A

reduced to cheap jokes poetry and friendly advice

A C

they'd rather see us all pusillanimous

G A

absorbent in their chorus of correctness

 

(repeat chorus)

 

by Lukas (NordicSpam@aol.com)

 

 

 

Return to my Bad Religion tabs page

The Tablature is Copyright its respective owners.

Sign Up For My Newsletter
Subscribe | Unsubscribe

Site Map | Disclaimer | Privacy Policy | Media Kit | Submissions/Corrections

Website © 2000-2014 mattsmusicpage.com. All rights reserved.

Legal & DMCA: Matt's Music Page has been providing lyrics and tabs in a legal way, paying royalties each year to a few organizations. Then, all lyrics and tabs were removed from the site. Now, there's a new owner to the site, which purchased it August 26, 2014, and he is in negotiation to obtain licensing from BMI at the moment. If you have a specific DMCA request -- please do not hesitate to contact me via the contact button on top. I will do my very best to keep this site fully legal.

Get our toolbar!