Your One-Stop Source For
Music Lyrics
Bass and Guitar Tabs
and More...
>Music Lyrics Bass and Guitar Tabs

 

The Bad Religion Bass Tabs Are Below

Learn To Read Tab
Chords Handbook
Corrections & Additions
Get Official Tab
Bad Religion tabs @ 911Tabs

GRAINS OF WRATH (Bassline)

As recorded by Bad Religion

(From the 2007 Album NEW MAPS OF HELL)

 

Words and Music by Bad Religion

Arranged by Bad Religion

Transcribed by Spidey255

 

Gtr I (E A D G) - 'Untitled'

 

Intro

Q=150

4/4

Gtr I

S S E +E E E S S +S S E S S E +E E E S S +S S E

|---------------------------|---------------------------|

|---------------------------|---------------------------|

|-3-3-3-(3)-3-3-3-3-(3)-3-3-|-3-3-3-(3)-3-3-3-3-(3)-3-3-|

|---------------------------|---------------------------|

 

 

S S E +E E E S S +S S E S S E +E E E S S +S S E

|---------------------------|----------------------------|

|---------------------------|----------------------------|

|-6-6-6-(6)-6-6-6-6-(6)-6-6-|-6-6-6-(6)-6-6-6-6-(6)-6-6--|

|---------------------------|----------------------------|

 

 

S S E +E E E S S +S S E S S E +E E E S S +S S E

|---------------------------|---------------------------|

|---------------------------|---------------------------|

|---------------------------|---------------------------|

|-6-6-6-(6)-6-6-6-6-(6)-6-6-|-6-6-6-(6)-6-6-6-6-(6)-6-6-|

 

 

To Coda

S S E +E E E S S +S S E S S E +E E E E E E

|---------------------------|----------------------|

|---------------------------|----------------------|

|---------------------------|-------------------1--|

|-3-3-3-(3)-3-3-3-3-(3)-3-3-|-3-3-3-(3)-3-3-1-3----|

 

 

Verse

S S E +E E E S S +S S E S S E +E E E S S +S S E

|---------------------------|---------------------------|

|---------------------------|---------------------------|

|-3-3-3-(3)-3-3-3-3-(3)-3-3-|-3-3-3-(3)-3-3-3-3-(3)-3-3S|

|---------------------------|---------------------------|

 

 

S S E +E E E S S +S S E S S E +E E E S S +S S E

|---------------------------|-----------------------------|

|---------------------------|-----------------------------|

|-6-6-6-(6)-6-6-6-6-(6)-6-6-|-6-6-6-(6)-6-6-6-6-(6)-6-6---|

|---------------------------|-----------------------------|

 

 

S S E +E E E S S +S S E S S E +E E E S S +S S E

|---------------------------|---------------------------|

|---------------------------|---------------------------|

|---------------------------|---------------------------|

|-6-6-6-(6)-6-6-6-6-(6)-6-6-|-6-6-6-(6)-6-6-6-6-(6)-6-6-|

 

 

S S E +E E E S S +S S E S S E +E E E E E E

|---------------------------|----------------------|

|---------------------------|----------------------|

|---------------------------|-------------------1--|

|-3-3-3-(3)-3-3-3-3-(3)-3-3-|-3-3-3-(3)-3-3-1-3----|

 

 

$

S S E +E E E S S +S S E S S E +E E E S S +S S E

|---------------------------|---------------------------|

|---------------------------|---------------------------|

|-3-3-3-(3)-3-3-3-3-(3)-3-3-|-3-3-3-(3)-3-3-3-3-(3)-3-3S|

|---------------------------|---------------------------|

 

 

S S E +E E E S S +S S E S S E +E E E E E E

|---------------------------|----------------------|

|---------------------------|----------------------|

|-6-6-6-(6)-6-6-6-6-(6)-6---|-6-6-6-(6)-5-6-5-3-0--|

|-------------------------6-|----------------------|

 

 

S S E +E E E S S +S S E S S E +E E E S S +S S E

|---------------------------|---------------------------|

|---------------------------|---------------------------|

|-1-1-1-(1)-1-1-1-1-(1)-1---|-1-1-1-(1)-1-1-1-1-(1)-1-1-|

|-------------------------1-|---------------------------|

 

 

S S E +E E E S S +S S E S S E +E E E E E E

|---------------------------|----------------------|

|---------------------------|----------------------|

|---------------------------|-------------------1--|

|-1-1-1-(1)-1-1-1-1-(1)-1-1-|-3-3-3-(3)-3-3-1-3----|

 

 

Chorus

S S E +E E E S S +S S E E E S S E E E S S E

||----------------------------|---------------------|

||o---------------------------|---------------------|

||o-3-3-3-(3)-3-3-3-3-(3)-3-3-|-6-6-6-6-6-----------|

||----------------------------|-----------6-6-6-6-6-|

 

 

S S E +E E E E E E W

|----------------------||------|

|---------------------o||------|

|---------------------o||------|

|-4-4-4-(4)-4-4-4-4-4--||-4----|

 

 

D.C. al Coda

D.C. al Coda

W S S E +E E E E E E S S E +E E E S S +S S E

|----------|---------------------|----------------------------|

|----------|---------------------|----------------------------|

|----------|---------------------|----------------------------|

|-6--------|-4-4-4-(4)-4-4-4-4-4-|-6-6-6-(6)-6-6-6-6-(6)-6-6--|

 

 

Verse

&

E S S +E E E S S S S E E S S +E E E S S S S E

|-------------------------|-------------------------|

|-------------------------|-------------------------|

|-3-3-3-(3)-3-3-3-3-3-3-3-|-3-3-3-(3)-3-3-3-3-3-3-3-|

|-------------------------|-------------------------|

 

 

E S S +E E E S S S S E E S S +E E E S S S S E

|-------------------------|---------------------------|

|-------------------------|---------------------------|

|-6-6-6-(6)-6-6-6-6-6-6-6-|-6-6-6-(6)-6-6-6-6-6-6-6---|

|-------------------------|---------------------------|

 

 

E S S +E E E S S S S E E S S +E E E S S S S E

|-------------------------|-------------------------|

|-------------------------|-------------------------|

|-------------------------|-------------------------|

|-6-6-6-(6)-6-6-6-6-6-6-6-|-6-6-6-(6)-6-6-6-6-6-6-6-|

 

 

D.S. al Dbl. Coda

E S S +E E E S S S S E E S S +E E E S S S S E

|-------------------------|---------------------------|

|-------------------------|---------------------------|

|-------------------------|---------------------------|

|-3-3-3-(3)-3-3-3-3-3-3-3-|-3-3-3-(3)-3-3-3-3-3-3-3---|

 

 

Guitar Solo

&&

S S E +E E E S S +S S E S S E +E E E S S +S S E

|---------------------------|---------------------------|

|---------------------------|---------------------------|

|-3-3-3-(3)-3-3-3-3-(3)-3-3-|-3-3-3-(3)-3-3-3-3-(3)-3-3-|

|---------------------------|---------------------------|

 

 

S S E +E E E S S +S S E S S E +E E E S S +S S E

|---------------------------|-----------------------------|

|---------------------------|-----------------------------|

|-6-6-6-(6)-6-6-6-6-(6)-6-6-|-6-6-6-(6)-6-6-6-6-(6)-6-6---|

|---------------------------|-----------------------------|

 

 

S S E +E E E S S +S S E S S E +E E E S S +S S E

|---------------------------|---------------------------|

|---------------------------|---------------------------|

|---------------------------|---------------------------|

|-6-6-6-(6)-6-6-6-6-(6)-6-6-|-6-6-6-(6)-6-6-6-6-(6)-6-6-|

 

 

S S E +E E E S S +S S E S S E +E E E E E E

|---------------------------|----------------------|

|---------------------------|----------------------|

|---------------------------|-------------------1--|

|-3-3-3-(3)-3-3-3-3-(3)-3-3-|-3-3-3-(3)-3-3-1-3----|

 

 

S S E +E E E S S +S S E S S E +E E E S S +S S E

|---------------------------|---------------------------|

|---------------------------|---------------------------|

|-3-3-3-(3)-3-3-3-3-(3)-3-3-|-3-3-3-(3)-3-3-3-3-(3)-3-3S|

|---------------------------|---------------------------|

 

 

S S E +E E E S S +S S E S S E +E E E E E E

|---------------------------|----------------------|

|---------------------------|----------------------|

|-6-6-6-(6)-6-6-6-6-(6)-6---|-6-6-6-(6)-5-6-5-3-0--|

|-------------------------6-|----------------------|

 

 

S S E +E E E S S +S S E S S E +E E E S S +S S E

|---------------------------|---------------------------|

|---------------------------|---------------------------|

|-1-1-1-(1)-1-1-1-1-(1)-1---|-1-1-1-(1)-1-1-1-1-(1)-1-1-|

|-------------------------1-|---------------------------|

 

 

S S E +E E S S E +E E S S E +E E E E E E

|-------------------------|-----------------------------|

|-------------------------|-----------------------------|

|-8-8-8-(8)---8-8-8-(8)---|-10-10-10-(10)-10-10-8-6-5---|

|-----------8-----------8-|-----------------------------|

 

 

Chorus

S S E +E E E S S +S S E E E S S E E E S S E

||----------------------------|---------------------|

||o---------------------------|---------------------|

||o-3-3-3-(3)-3-3-3-3-(3)-3-3-|-6-6-6-6-6-----------|

||----------------------------|-----------6-6-6-6-6-|

 

 

S S E +E E E E E E W

|----------------------||------|

|---------------------o||------|

|---------------------o||------|

|-4-4-4-(4)-4-4-4-4-4--||-4----|

 

 

W S S E +E E E E E E S S E +E E E S S +S S E

|----------|---------------------|----------------------------|

|----------|---------------------|----------------------------|

|----------|---------------------|----------------------------|

|-6--------|-4-4-4-(4)-4-4-4-4-4-|-6-6-6-(6)-6-6-6-6-(6)-6-6--|

 

 

Outro

S S E +E E E S S +S S E S S E +E E E S S +S S E

|---------------------------|---------------------------|

|---------------------------|---------------------------|

|-3-3-3-(3)-3-3-3-3-(3)-3-3-|-3-3-3-(3)-3-3-3-3-(3)-3-3-|

|---------------------------|---------------------------|

 

 

S S E +E E E S S +S S E S S E +E E E S S +S S E

|---------------------------|-----------------------------|

|---------------------------|-----------------------------|

|-6-6-6-(6)-6-6-6-6-(6)-6-6-|-6-6-6-(6)-6-6-6-6-(6)-6-6---|

|---------------------------|-----------------------------|

 

 

S S E +E E E S S +S S E S S E +E E E S S +S S E

|---------------------------|---------------------------|

|---------------------------|---------------------------|

|---------------------------|---------------------------|

|-6-6-6-(6)-6-6-6-6-(6)-6-6-|-6-6-6-(6)-6-6-6-6-(6)-6-6-|

 

 

S S E +E E E S S +S S E S S E +E E E E E E

|---------------------------|----------------------|

|---------------------------|----------------------|

|---------------------------|-------------------1--|

|-3-3-3-(3)-3-3-3-3-(3)-3-3-|-3-3-3-(3)-3-3-1-3----|

 

 

S S E +E E E S S +S S E S S E +E E E S S +S S E

|---------------------------|---------------------------|

|---------------------------|---------------------------|

|-3-3-3-(3)-3-3-3-3-(3)-3-3-|-3-3-3-(3)-3-3-3-3-(3)-3-3S|

|---------------------------|---------------------------|

 

 

S S E +E E E S S +S S E S S E +E E E E E E

|---------------------------|----------------------|

|---------------------------|----------------------|

|-6-6-6-(6)-6-6-6-6-(6)-6---|-6-6-6-(6)-5-6-5-3-0--|

|-------------------------6-|----------------------|

 

 

S S E +E E E S S +S S E S S E +E E E S S +S S E

|---------------------------|---------------------------|

|---------------------------|---------------------------|

|-1-1-1-(1)-1-1-1-1-(1)-1---|-1-1-1-(1)-1-1-1-1-(1)-1-1-|

|-------------------------1-|---------------------------|

 

 

S S E +E E E S S +S S E S S E +E E E E E E

|---------------------------|----------------------|

|---------------------------|----------------------|

|---------------------------|-------------------1--|

|-1-1-1-(1)-1-1-1-1-(1)-1-1-|-3-3-3-(3)-3-3-1-3----|

 

 

W +W +W +W

|----------|------------|------------|--------*|

|----------|------------|------------|--------*|

|-3--------|-(3)--------|-(3)--------|-(3)----*|

|----------|------------|------------|--------*|

 

 

Duration Legend

---------------

W - whole; H - half; Q - quarter; E - 8th; S - 16th; T - 32nd; X - 64th; a - acciaccatura

+ - note tied to previous; . - note dotted; .. - note double dotted

Uncapitalized letters represent notes that are staccato (1/2 duration)

Irregular groupings are notated above the duration line

Duration letters will always appear directly above the note/fret number it represents the

duration for. Duration letters with no fret number below them represent rests. Multi-

bar rests are notated in the form Wxn, where n is the number of bars to rest for. Low

melody durations appear below the staff

 

Tablature Legend

----------------

h - hammer-on

p - pull-off

b - bend

pb - pre-bend

r - bend release (if no number after the r, then release immediately)

/\ - slide into or out of (from/to "nowhere")

s - legato slide

S - shift slide

- natural harmonic

[n] - artificial harmonic

n(n) - tapped harmonic

~ - vibrato

tr - trill

T - tap

TP - trem. picking

PM - palm muting

\n/ - tremolo bar dip; n = amount to dip

\n - tremolo bar down

n/ - tremolo bar up

/n\ - tremolo bar inverted dip

= - hold bend; also acts as connecting device for hammers/pulls

<> - volume swell (louder/softer)

x - on rhythm slash represents muted slash

o - on rhythm slash represents single note slash

 

Misc Legend

-----------

| - bar

|| - double bar

||o - repeat start

o|| - repeat end

*| - double bar (ending)

: - bar (freetime)

$ - Segno

& - Coda

Tempo markers - = BPM(8/16=s8/s16), where s8 = swing 8ths, s16 = swing 16ths

Return to my Bad Religion Bass Tabs page

The Tablature is Copyright its respective owners.

Sign Up For My Newsletter
Subscribe | Unsubscribe

Site Map | Disclaimer | Privacy Policy | Media Kit | Submissions/Corrections

Website © 2000-2014 mattsmusicpage.com. All rights reserved.

Legal & DMCA: Matt's Music Page has been providing lyrics and tabs in a legal way, paying royalties each year to a few organizations. Then, all lyrics and tabs were removed from the site. Now, there's a new owner to the site, which purchased it August 26, 2014, and he is in negotiation to obtain licensing from BMI at the moment. If you have a specific DMCA request -- please do not hesitate to contact me via the contact button on top. I will do my very best to keep this site fully legal.

Get our toolbar!

 

USA NEW YORK 33876 POSTCARD REMINGTON POND SUMMER CAMP DRUM PLAYGROUND VIEW
$4.95
USA NEW YORK 33876 POSTCARD REMINGTON POND SUMMER CAMP DRUM PLAYGROUND VIEW picture


USA NY 33868 POSTCARD GUARD PARADE FIFES DRUM SOUTH WALL FORT TICONDEROGA SCENE
$4.95
USA NY 33868 POSTCARD GUARD PARADE FIFES DRUM SOUTH WALL FORT TICONDEROGA SCENE picture


Vintage Infant Drum Planter, Very Cute, Round, Estate Sale Find, No Markings
$15.0
Vintage Infant Drum Planter, Very Cute, Round, Estate Sale Find, No Markings picture


SINGAPORE SPARKLY WHITE SWEATSHIRT HOODIE BEAR BONGO DRUM Hard Rock Cafe PINS
$7.99
SINGAPORE SPARKLY WHITE SWEATSHIRT HOODIE BEAR BONGO DRUM Hard Rock Cafe PINS picture


SINGAPORE HOTEL RED & WHITE ORCHID FLOWER TRIPLE DRUMKIT DRUM Hard Rock Cafe PIN
$5.99
SINGAPORE HOTEL RED & WHITE ORCHID FLOWER TRIPLE DRUMKIT DRUM Hard Rock Cafe PIN picture