Your One-Stop Source For
Music Lyrics
Bass and Guitar Tabs
and More...
Music Lyrics Bass and Guitar Tabs

 

The Bad Religion Tabs Are Below

Learn To Read Tab
Chords Handbook
Corrections & Additions
Get Official Tab
Bad Religion tabs @ 911Tabs

DEARLY BELOVED

As recorded by Bad Religion

(From the 2007 Album NEW MAPS OF HELL)

 

Transcribed by Whoabot

 

 

Words and Music by Bad Religion

Arranged by Bad Religion

 

Gtr I (E A D G B E) - 'Untitled'

Gtr II (E A D G B E) - 'Untitled'

Gtr III (E A D G B E) - 'Pickscrape Effect (MIDI Purposes Only'

Gtr IV (E A D G B E) - 'Untitled'

 

Intro

Q=157

N.C. E5 A5

2/4 4/4

Gtr I

H Q Q Q E E +E E E E E E Q

|------||--------------------|----------------0--1-0----||

|------||o-------------0--1--|-(1)-1--1---1------------o||

|------||--2---1---2---------|--------------------------||

|------||--------------------|--------------------------||

|------||o-------------------|-------------------------o||

|------||--------------------|--------------------------||

|

| Gtr II

| H E E E E E E E E +E E E E E E E E

|------||----------------(0)-|-(0)---(0)-(0)-(0)--------||

|------||o---------------(0)-|-(0)---(0)-(0)-(0)-------o||

|------||-----------------2--|-(2)-2--2---2---2--2-2-2--||

|------||--2-2-2-2-2-2-2--2--|-(2)-2--2---2---2--2-2-2--||

|------||o-2-2-2-2-2-2-2--0--|-(0)-0--0---0---0--0-0-0-o||

|------||--0-0-0-0-0-0-0-----|--------------------------||

 

 

E5 A5 E5

Q Q Q E E +E E E E E E Q

|-------------------|-------------0-1-0-----|

|-------------0--1--|-(1)-1--1--1-----------|

|-2---1---2---------|-----------------------|

|-------------------|-----------------------|

|-------------------|-----------------------|

|-------------------|-----------------------|

|

| E E E E E E E E +E E E E E E E E

|---------------(0)-|-(0)---(0)-------------|

|---------------(0)-|-(0)---(0)-------------|

|----------------2--|-(2)-2--2--2-2-2-------|

|-2-2-2-2-2-2-2--2--|-(2)-2--2--2-2-2-------|

|-2-2-2-2-2-2-2--0--|-(0)-0--0--0-0-0-0-2---|

|-0-0-0-0-0-0-0-----|-----------------0-0---|

 

 

F5 G5

W W W W

|-0-----------------|-------------------|-----------------|-3---------------||

|-------------------|-1-----------------|-0---------------|-3---------------||

|-------------------|-------------------|-----------------|-0---------------||

|-------------------|-------------------|-----------------|-0---------------||

|-------------------|-------------------|-----------------|-x---------------||

|-------------------|-------------------|-----------------|-3---------------||

|

| E E Q E E Q E E Q E E Q E E E E E E E E E E E E E E E E

|-----(0)------(0)--|-----(0)------(0)--|-----------------|-----------------||

|-----(0)------(0)--|-----(0)------(0)--|-----------------|-----------------||

|-----(x)------(x)--|-----(x)------(x)--|-----------------|-----------------||

|------3--------3---|------3--------3---|-----------------|-----------------||

|-3-3--3---3-3--3---|-3-3--3---3-3--3---|-5-5-5-5-5-5-5-5-|-5-5-5-5-5-5-5-5-||

|-1-1--1---1-1--1---|-1-1--1---1-1--1---|-3-3-3-3-3-3-3-3-|-3-3-3-3-3-3-3-3-||

 

 

Verse

A5 F5 C5 G5 A5 F5 C5 G5

Gtrs I, II

E E E E E E E E E E E E E E E E E E E E E E E E E E E E E E E E

||------------------|-----------------|-----------------|-------------------||

||o-----------------|-----------------|-----------------|------------------o||

||--2-2-2-----------|-5-5-5-----------|-2-2-2-----------|-5-5-5-------------||

||--2-2-2-0-3-3-3-3-|-5-5-5-0-5-5-5-5-|-2-2-2-0-3-3-3-3-|-5-5-5-0-5-5-5-5---||

||o-0-0-0-0-3-3-3-3-|-3-3-3-0-5-5-5-5-|-0-0-0-0-3-3-3-3-|-3-3-3-0-5-5-5-5--o||

||----------1-1-1-1-|---------3-3-3-3-|---------1-1-1-1-|---------3-3-3-3---||

 

 

Pre-Chorus

A5 B5 C5 F5

Gtr I

W W W W

|-----------------|-----------------|-----------------|-----------------||

|-----------------|-----------------|-----------------|-----------------||

|-2---------------|-4---------------|-5---------------|-----------------||

|-2---------------|-4---------------|-5---------------|-3---------------||

|-0---------------|-2---------------|-3---------------|-3---------------||

|-----------------|-----------------|-----------------|-1---------------||

|

| Gtr II

| E E E E E E E E E E E E E E E E E E E E E E E E E E E E E E E E

|-----------------|-----------------|-----------------|-----------------||

|-----------------|-----------------|-----------------|-----------------||

|-----------------|-----------------|-----------------|-----------------||

|-2-2-2-2-2-2-2-2-|-4-4-4-4-4-4-4-4-|-5-5-5-5-5-5-5-5-|-3-3-3-3-3-3-3-3-||

|-0-0-0-0-0-0-0-0-|-2-2-2-2-2-2-2-2-|-3-3-3-3-3-3-3-3-|-3-3-3-3-3-3-3-3-||

|-----------------|-----------------|-----------------|-1-1-1-1-1-1-1-1-||

 

 

Chorus

A5 F5 C5 G5

E E E E E E E E E E E E E E E E

|-----------------|-----------------|

|-----------------|-----------------|

|-2-2-2-2---------|-5-5-5-5---------|

|-2-2-2-2-3-3-3-3-|-5-5-5-5-5-5-5-5-|

|-0-0-0-0-3-3-3-3-|-3-3-3-3-5-5-5-5-|

|---------1-1-1-1-|---------3-3-3-3-|

|

| E E E E E E E E E E E E E E E E

|-----------------|-----------------|

|-----------------|-----------------|

|-2-2-2-2---------|-5-5-5-5---------|

|-2-2-2-2-3-3-3-3-|-5-5-5-5-5-5-5-5-|

|-0-0-0-0-3-3-3-3-|-3-3-3-3-5-5-5-5-|

|---------1-1-1-1-|---------3-3-3-3-|

 

 

A5 E

E E E E E E E E E E E E E E E E

|-----------------|-------------------------------||

|-----------------|-------------------------------||

|-2-2-2-2-2-2-2-2-|---(1)-(1)-(1)-(1)-(1)-(1)-(1)-||

|-2-2-2-2-2-2-2-2-|----2---2---2---2---2---2---2--||

|-0-0-0-0-0-0-0-0-|----2---2---2---2---2---2---2--||

|-----------------|----0---0---0---0---0---0---0--||

|

| E E E E E E E E E E E E E E E E

|-----------------|-------------------------------||

|-----------------|---(9)-(9)-(9)-(9)-(9)-(9)-(9)-||

|-2-2-2-2-2-2-2-2-|---(9)-(9)-(9)-(9)-(9)-(9)-(9)-||

|-2-2-2-2-2-2-2-2-|----9---9---9---9---9---9---9--||

|-0-0-0-0-0-0-0-0-|----7---7---7---7---7---7---7--||

|-----------------|----0---0---0---0---0---0---0--||

 

 

Pre-Verse

E5 A5

Q Q Q E E +E E E E E E Q

|-------------------|----------------0--1-0---|

|-------------0--1--|-(1)-1--1---1------------|

|-2---1---2---------|-------------------------|

|-------------------|-------------------------|

|-------------------|-------------------------|

|-------------------|-------------------------|

|

| E E E E E E E E +E E E E E E E E

|---------------(0)-|-(0)---(0)-(0)-(0)-------|

|---------------(0)-|-(0)---(0)-(0)-(0)-------|

|----------------2--|-(2)-2--2---2---2--2-2-2-|

|-2-2-2-2-2-2-2--2--|-(2)-2--2---2---2--2-2-2-|

|-2-2-2-2-2-2-2--0--|-(0)-0--0---0---0--0-0-0-|

|-0-0-0-0-0-0-0-----|-------------------------|

 

 

E5 A5

Q Q Q E E +E E E E E E Q

|-------------------|-------------------||

|-------------0--1--|-(1)-1-1-1-1-1-1---||

|-2---1---2---------|-------------------||

|-------------------|-------------------||

|-------------------|-------------------||

|-------------------|-------------------||

|

| E E E E E E E E +E E E E E E E E

|---------------(0)-|-(0)---------------||

|---------------(0)-|-(0)-1-1-1-1-1-1-1-||

|----------------2--|-(2)-2-2-2-2-2-2-2-||

|-2-2-2-2-2-2-2--2--|-(2)-2-2-2-2-2-2-2-||

|-2-2-2-2-2-2-2--0--|-(0)-0-0-0-0-0-0-0-||

|-0-0-0-0-0-0-0-----|-------------------||

 

 

Verse

A5 F5 C5 G5 A5 F5 C5 G5

Gtrs I, II

E E E E E E E E E E E E E E E E E E E E E E E E E E E E E E E E

|-----------------|-----------------|-----------------|-----------------|

|-----------------|-----------------|-----------------|-----------------|

|-2-2-2-2---------|-5-5-5-----------|-2-2-2-2---------|-5-5-5-----------|

|-2-2-2-2-3-3-3-3-|-5-5-5-0-5-5-5-5-|-2-2-2-2-3-3-3-3-|-5-5-5-5-5-5-5-5-|

|-0-0-0-0-3-3-3-3-|-3-3-3-0-5-5-5-5-|-0-0-0-0-3-3-3-3-|-3-3-3-5-5-5-5-5-|

|---------1-1-1-1-|---------3-3-3-3-|---------1-1-1-1-|-------3-3-3-3-3-|

 

 

A5 F5 C5 G5 A5 F5 C5 G5

E E E E E E E E E E E E E E E E E E E E E E E E E E E E E E E E

|-----------------|-----------------|-----------------|-----------------||

|-----------------|-----------------|-----------------|-----------------||

|-2-2-2-2---------|-5-5-5-----------|-2-2-2-----------|-5-5-5-----------||

|-2-2-2-2-3-3-3-3-|-5-5-5-5-5-5-5-5-|-2-2-2-3-3-3-3-3-|-5-5-5-5-5-5-5-5-||

|-0-0-0-0-3-3-3-3-|-3-3-3-5-5-5-5-5-|-0-0-0-3-3-3-3-3-|-3-3-3-5-5-5-5-5-||

|---------1-1-1-1-|-------3-3-3-3-3-|-------1-1-1-1-1-|-------3-3-3-3-3-||

 

 

Pre-Chorus

A5 B5 C5 F5

Gtr I

W W W W

|-----------------|-----------------|-----------------|-----------------||

|-----------------|-----------------|-----------------|-----------------||

|-2---------------|-4---------------|-5---------------|-----------------||

|-2---------------|-4---------------|-5---------------|-3---------------||

|-0---------------|-2---------------|-3---------------|-3---------------||

|-----------------|-----------------|-----------------|-1---------------||

|

| Gtr II

| E E E E E E E E E E E E E E E E E E E E E E E E E E E E E E E E

|-----------------|-----------------|-----------------|-----------------||

|-----------------|-----------------|-----------------|-----------------||

|-----------------|-----------------|-----------------|-----------------||

|-2-2-2-2-2-2-2-2-|-4-4-4-4-4-4-4-4-|-5-5-5-5-5-5-5-5-|-3-3-3-3-3-3-3-3-||

|-0-0-0-0-0-0-0-0-|-2-2-2-2-2-2-2-2-|-3-3-3-3-3-3-3-3-|-3-3-3-3-3-3-3-3-||

|-----------------|-----------------|-----------------|-1-1-1-1-1-1-1-1-||

 

 

Chorus

A5 F5 C5 G5

E E E E E E E E E E E E E E E E

|-----------------|-----------------|

|-----------------|-----------------|

|-2-2-2-2---------|-5-5-5-5---------|

|-2-2-2-2-3-3-3-3-|-5-5-5-5-5-5-5-5-|

|-0-0-0-0-3-3-3-3-|-3-3-3-3-5-5-5-5-|

|---------1-1-1-1-|---------3-3-3-3-|

|

| E E E E E E E E E E E E E E E E

|-----------------|-----------------|

|-----------------|-----------------|

|-2-2-2-2---------|-5-5-5-5---------|

|-2-2-2-2-3-3-3-3-|-5-5-5-5-5-5-5-5-|

|-0-0-0-0-3-3-3-3-|-3-3-3-3-5-5-5-5-|

|---------1-1-1-1-|---------3-3-3-3-|

 

 

A5 E

E E E E E E E E E E E E E E E E

|-----------------|-------------------------------||

|-----------------|-------------------------------||

|-2-2-2-2-2-2-2-2-|---(1)-(1)-(1)-(1)-(1)-(1)-(1)-||

|-2-2-2-2-2-2-2-2-|----2---2---2---2---2---2---2--||

|-0-0-0-0-0-0-0-0-|----2---2---2---2---2---2---2--||

|-----------------|----0---0---0---0---0---0---0--||

|

| E E E E E E E E E E E E E E E E

|-----------------|-------------------------------||

|-1-1-1-1-1-1-1-1-|---(9)-(9)-(9)-(9)-(9)-(9)-(9)-||

|-2-2-2-2-2-2-2-2-|---(9)-(9)-(9)-(9)-(9)-(9)-(9)-||

|-2-2-2-2-2-2-2-2-|----9---9---9---9---9---9---9--||

|-0-0-0-0-0-0-0-0-|----7---7---7---7---7---7---7--||

|-----------------|----0---0---0---0---0---0---0--||

 

 

nterlude

A5

PM----------------------------------------------------

E E E E E E E E E E E E E E E E

|---------------------------|---------------------------|

|---------------------------|---------------------------|

|---------------------------|---------------------------|

|---------------------------|---------------------------|

|--7--7--7---7--7--7--7---7-|--7--7--7---7--7--7--7---7-|

|--5--5--5---5--5--5--5---5-|--5--5--5---5--5--5--5---5-|

|

| PM----------------------------------------------------

| E E E E E E E E E E E E E E E E

|---------------------------|---------------------------|

|---------------------------|---------------------------|

|---------------------------|---------------------------|

|---------------------------|---------------------------|

|-12-12-(x)-12-12-12-(x)-12-|-12-12-(x)-12-12-12-(x)-12-|

|---------------------------|---------------------------|

 

 

G5

----------------------------------------------------|

E E E E E E E E E E E E E E E E

|---------------------------|---------------------------|

|---------------------------|---------------------------|

|---------------------------|---------------------------|

|---------------------------|---------------------------|

|--5--5--5---5--5--5--5---5-|--5--5--5---5--5--5--5---5-|

|--3--3--3---3--3--3--3---3-|--3--3--3---3--3--3--3---3-|

|

|----------------------------------------------------|

| E E E E E E E E E E E E E E E E

|---------------------------|---------------------------|

|---------------------------|---------------------------|

|---------------------------|---------------------------|

|---------------------------|---------------------------|

|-14-14-(x)-14-14-14-(x)-14-|-14-14-(x)-14-14-14-(x)-14-|

|---------------------------|---------------------------|

 

 

F5

PM----------------------------------------------------

E E E E E E E E E E E E E E E E

|---------------------------|---------------------------|

|---------------------------|---------------------------|

|---------------------------|---------------------------|

|---------------------------|---------------------------|

|--3--3--3---3--3--3--3---3-|--3--3--3---3--3--3--3---3-|

|--1--1--1---1--1--1--1---1-|--1--1--1---1--1--1--1---1-|

|

| PM----------------------------------------------------

| E E E E E E E E E E E E E E E E

|---------------------------|---------------------------|

|---------------------------|---------------------------|

|---------------------------|---------------------------|

|---------------------------|---------------------------|

|-15-15-(x)-15-15-15-(x)-15-|-15-15-(x)-15-15-15-(x)-15-|

|---------------------------|---------------------------|

 

 

E5

----------------------------------------------------|

E E E E E E E E E E E E E E E E

|---------------------------|---------------------------|

|---------------------------|---------------------------|

|---------------------------|---------------------------|

|---------------------------|---------------------------|

|--2--2--2---2--2--2--2---2-|--2--2--2---2--2--2--2---2-|

|--0--0--0---0--0--0--0---0-|--0--0--0---0--0--0--0---0-|

|

|----------------------------------------------------|

| E E E E E E E E E E E E E E E E

|---------------------------|---------------------------|

|---------------------------|---------------------------|

|---------------------------|---------------------------|

|---------------------------|---------------------------|

|-11-11-(x)-11-11-11-(x)-11-|-11-11-(x)-11-11-11-(x)-11-|

|---------------------------|---------------------------|

 

 

A5

PM----------------------------------------------------

E E E E E E E E E E E E E E E E

|---------------------------|---------------------------|

|---------------------------|---------------------------|

|---------------------------|---------------------------|

|---------------------------|---------------------------|

|--7--7--7---7--7--7--7---7-|--7--7--7---7--7--7--7---7-|

|--5--5--5---5--5--5--5---5-|--5--5--5---5--5--5--5---5-|

|

| E E E E E E E E E E E E E E E E

|---------------------------|---------------------------|

|---------------------------|---------------------------|

|-14-14-(x)-14-14-14-(x)-14-|-14-14-(x)-14-14-14-(x)-14-|

|--x--x-(x)--x--x--x-(x)--x-|--x--x-(x)--x--x--x-(x)--x-|

|-12-12-(x)-12-12-12-(x)-12-|-12-12-(x)-12-12-12-(x)-12-|

|---------------------------|---------------------------|

 

 

G5

----------------------------------------------------|

E E E E E E E E E E E E E E E E

|---------------------------|---------------------------|

|---------------------------|---------------------------|

|---------------------------|---------------------------|

|---------------------------|---------------------------|

|--5--5--5---5--5--5--5---5-|--5--5--5---5--5--5--5---5-|

|--3--3--3---3--3--3--3---3-|--3--3--3---3--3--3--3---3-|

|

| E E E E E E E E E E E E E E E E

|---------------------------|---------------------------|

|---------------------------|---------------------------|

|-16-16-(x)-16-16-16-(x)-16-|-16-16-(x)-16-16-16-(x)-16-|

|--x--x-(x)--x--x--x-(x)--x-|--x--x-(x)--x--x--x-(x)--x-|

|-14-14-(x)-14-14-14-(x)-14-|-14-14-(x)-14-14-14-(x)-14-|

|---------------------------|---------------------------|

 

 

F5

PM----------------------------------------------------

E E E E E E E E E E E E E E E E

|---------------------------|---------------------------|

|---------------------------|---------------------------|

|---------------------------|---------------------------|

|---------------------------|---------------------------|

|--3--3--3---3--3--3--3---3-|--3--3--3---3--3--3--3---3-|

|--1--1--1---1--1--1--1---1-|--1--1--1---1--1--1--1---1-|

|

| E E E E E E E E E E E E E E E E

|---------------------------|---------------------------|

|---------------------------|---------------------------|

|-17-17-(x)-17-17-17-(x)-17-|-17-17-(x)-17-17-17-(x)-17-|

|--x--x-(x)--x--x--x-(x)--x-|--x--x-(x)--x--x--x-(x)--x-|

|-15-15-(x)-15-15-15-(x)-15-|-15-15-(x)-15-15-15-(x)-15-|

|---------------------------|---------------------------|

 

 

E5

------------------------------------------------|

E E E E E E E E E E E E E E E E

|---------------------------|----------------------||

|---------------------------|----------------------||

|---------------------------|----------------------||

|---------------------------|----------------------||

|--2--2--2---2--2--2--2---2-|--2--2--2-2--2--2-2-2-||

|--0--0--0---0--0--0--0---0-|--0--0--0-0--0--0-0-0-||

|

| >

| E E E E E E E E E E Q H

|---------------------------|----------------------||

|---------------------------|----------------------||

|-13-13-(x)-13-13-13-(x)-13-|-13-13-13---13--------||

|--x--x-(x)--x--x--x-(x)--x-|--x--x--x---(x)-------||

|-11-11-(x)-11-11-11-(x)-11-|-11-11-11---11--------||

|---------------------------|----------------------||

 

 

Do you know my name?

A5 F5 C5 G5

Gtr IV

PM----------------------------------------------

E E E E E E E E E E E E E E E S S

|---------------------|--------------------------|

|---------------------|--------------------------|

|---------------------|--------------------------|

|---2-2---------------|-5--5-5-------------------|

|-0-0-0-(0)-3-3-3-(0)-|-3--3-3-(0)-5-5-5-(0)-(0)-|

|--------0--1-1-1--0--|---------0--3-3-3--0---0--|

|

| Gtrs I, II

| W H. E S S

|---------------------|--------------------------|

|---------------------|--------------------------|

|---------------------|-------------------x---x--|

|---------------------|-------------------x---x--|

|---------------------|-------------------x---x--|

|---------------------|-------------------x---x--|

 

 

A5 F5 C5 G5

------------------------------------------------|

E E E E E E E E E E E E E E E S S

|--------------------------|--------------------------|

|--------------------------|--------------------------|

|--------------------------|--------------------------|

|-2-----2-2----------------|-5-5-5--------------------|

|-0-----0-0--(0)-3-3-3-(0)-|-3-3-3-(0)-5-5-5-(0)-(0)--|

|-------------0--1-1-1--0--|--------0--3-3-3--0---0---|

|

| S S E H. W

|--------------------------|--------------------------|

|--------------------------|--------------------------|

|-x-(x)--------------------|--------------------------|

|-x-(x)--------------------|--------------------------|

|-x-(x)--------------------|--------------------------|

|-x-(x)--------------------|--------------------------|

 

 

A5 F5 C5 G5 A5

Gtr

PM-----------------------------------|

E E E E E E E E E E E E E E E E

|---------------------|---------------------|

|---------------------|---------------------|

|---------------------|------------------2--|

|-2-2-2---------------|-5--5-5-----------2--|

|-0-0-0-(0)-3-3-3-(0)-|-3--3-3-(0)-5-5-5-0--|

|--------0--1-1-1--0--|---------0--3-3-3----|

|

| Gtr II

| W H. E E

|---------------------|---------------------|

|---------------------|---------------------|

|---------------------|------------------2--|

|---------------------|------------------2--|

|---------------------|------------------0--|

|---------------------|---------------------|

|

| Gtr III

| W H. E E

|---------------------|---------------------|

|---------------------|---------------------|

|---------------------|------------------x\-|

|---------------------|------------------x\-|

|---------------------|------------------x\-|

|---------------------|---------------------|

 

 

F C5 G5

I

+E E E E E E E E E E E E E E E E

|-------------------|------------------||

|-------------------|------------------||

|-(2)-2-2-2---------|-5--5-5-5---------||

|-(2)-2-2-2-3-3-3-3-|-5--5-5-5-5-5-5-5-||

|-(0)-0-0-0-3-3-3-3-|-3--3-3-3-5-5-5-5-||

|-----------1-1-1-1-|----------3-3-3-3-||

|

| +E E E E E E E E E E E E E E E E

|-------------------|------------------||

|-------------------|------------------||

|-(2)-2-2-2-2-2-2-2-|-5--5-5-5---------||

|-(2)-2-2-2-3-3-3-3-|-5--5-5-5-5-5-5-5-||

|-(0)-0-0-0-3-3-3-3-|-3--3-3-3-5-5-5-5-||

|-------------------|----------3-3-3-3-||

|

| \7

| TP

| W W

|-------------------|------------------||

|-------------------|------------------||

|-------------------|-x\---------------||

|-------------------|-x\---------------||

|-------------------|-x\---------------||

|-------------------|------------------||

 

 

Pre-Chorus

Am B5 C5 F5

Gtr I

Q Q Q Q Q Q Q Q Q Q Q Q Q Q Q Q

|-----------------|-----------------|-----------------|-----------------||

|---------1---1---|-----------------|-----------------|-----------------||

|-2---2---2---2---|-4---4---4---4---|-5---5---5---5---|-----------------||

|-2---2---2---2---|-4---4---4---4---|-5---5---5---5---|-3---3---3---3---||

|-0---0---0---0---|-2---2---2---2---|-3---3---3---3---|-3---3---3---3---||

|-----------------|-----------------|-----------------|-1---1---1---1---||

|

| Gtr II

| E E E E E E E E E E E E E E E E E E E E E E E E E E E E E E E E

|-----------------|-----------------|-----------------|-----------------||

|-----------------|-----------------|-----------------|-----------------||

|-----------------|-----------------|-----------------|-----------------||

|-2-2-2-2-2-2-2-2-|-4-4-4-4-4-4-4-4-|-5-5-5-5-5-5-5-5-|-3-3-3-3-3-3-3-3-||

|-0-0-0-0-0-0-0-0-|-2-2-2-2-2-2-2-2-|-3-3-3-3-3-3-3-3-|-3-3-3-3-3-3-3-3-||

|-----------------|-----------------|-----------------|-1-1-1-1-1-1-1-1-||

 

 

Out-Chorus

Am F C G Am

Q Q Q Q Q Q Q Q 4x W +W 8x

||----------------------|----------------------||-0--------||--(0)-----||

||o-1---1---(1)---(1)---|-5---5---(3)---(3)---o||-1--------||o-(1)----o||

||--2---2----2-----2----|-5---5----4-----4-----||-2--------||--(2)-----||

||--2---2----3-----3----|-5---5----5-----5-----||-2--------||--(2)-----||

||o-0---0----3-----3----|-3---3----5-----5----o||-0--------||o-(0)----o||

||-----------1-----1----|----------3-----3-----||----------||----------||

|

| E E E E E E E E E E E E E E E E 4x W +W 8x

||----------------------|----------------------||----------||----------||

||o---------------------|---------------------o||----------||o--------o||

||--2-2-2-2-------------|-5-5-5-5--------------||----------||----------||

||--2-2-2-2--3--3--3--3-|-5-5-5-5--5--5--5--5--||-7--------||--(7)-----||

||o-0-0-0-0--3--3--3--3-|-3-3-3-3--5--5--5--5-o||-7--------||o-(7)----o||

||-----------1--1--1--1-|----------3--3--3--3--||-5--------||--(5)-----||

 

 

 

Duration Legend

---------------

W - whole; H - half; Q - quarter; E - 8th; S - 16th; T - 32nd; X - 64th; a - acciaccatura

+ - note tied to previous; . - note dotted; .. - note double dotted

Uncapitalized letters represent notes that are staccato (1/2 duration)

Irregular groupings are notated above the duration line

Duration letters will always appear directly above the note/fret number it represents the

duration for. Duration letters with no fret number below them represent rests. Multi-

bar rests are notated in the form Wxn, where n is the number of bars to rest for. Low

melody durations appear below the staff

 

Tablature Legend

----------------

h - hammer-on

p - pull-off

b - bend

pb - pre-bend

r - bend release (if no number after the r, then release immediately)

/\ - slide into or out of (from/to "nowhere")

s - legato slide

S - shift slide

- natural harmonic

[n] - artificial harmonic

n(n) - tapped harmonic

~ - vibrato

tr - trill

T - tap

TP - trem. picking

PM - palm muting

\n/ - tremolo bar dip; n = amount to dip

\n - tremolo bar down

n/ - tremolo bar up

/n\ - tremolo bar inverted dip

= - hold bend; also acts as connecting device for hammers/pulls

<> - volume swell (louder/softer)

x - on rhythm slash represents muted slash

o - on rhythm slash represents single note slash

 

Misc Legend

-----------

| - bar

|| - double bar

||o - repeat start

o|| - repeat end

*| - double bar (ending)

: - bar (freetime)

$ - Segno

& - Coda

Tempo markers - = BPM(8/16=s8/s16), where s8 = swing 8ths, s16 = swing 16ths

Return to my Bad Religion Guitar Tabs page

The Tablature is Copyright its respective owners.

Sign Up For My Newsletter
Subscribe | Unsubscribe

Site Map | Disclaimer | Privacy Policy | Media Kit | Submissions/Corrections

Website © 2000-2014 mattsmusicpage.com. All rights reserved.

Legal & DMCA: Matt's Music Page has been providing lyrics and tabs in a legal way, paying royalties each year to a few organizations. Then, all lyrics and tabs were removed from the site. Now, there's a new owner to the site, which purchased it August 26, 2014, and he is in negotiation to obtain licensing from BMI at the moment. If you have a specific DMCA request -- please do not hesitate to contact me via the contact button on top. I will do my very best to keep this site fully legal.

Get our toolbar!