Your One-Stop Source For
Music Lyrics
Bass and Guitar Tabs
and More...
>Music Lyrics Bass and Guitar Tabs

 

The Tabs Are Below

Learn To Read Tab
Chords Handbook
Corrections & Additions
Get Official Tab
Bad Religion tabs @ 911Tabs

Song:STRANGER THAN FICTION

Band: Badreligion

Album:Same as song

 

[X} play that number of times

RIFF X4

G----------------------------------------------|

D----------------------------------------------|

A:-3-3--3-3--0-0-----------------------------|

E:------------------3-3--1-1--0-0--1-1--3-3-|

 

RIFFB X2

G--------------------------------------------------------------------------------------|

D-----------------------------------------------------------------3-3-3-3------------|

A:3-3-3-3--1-1-1-1--0-0-0-0------------3-3-3-3--7-7-7-7----------------------|

E:---------------------------------3-3-3-3---------------------------------3-3-3-3--|

 

RIFFC

G------------------------|-----------------------------|---------------------------------|--------------|

D------------------------|--------------------2-0-----|---------------------------------|--------------|

A------------------------|------------------------3-2-|-----------------------5-5-5-5-|--------------|

E:-1-1--3-3--5-5-5-3--|--1-1--3-3--5-5-----------|-1-1-1-1--0-0-0-0------------|----3-3-3-3-|

 

RIFFD

G--------------------------------------------------------------------------------------------------------------|

E--------------------------------------------------------------------------------------------------------------|

A-3--3--2--2--0--0-------3-3--2-2--0-0------------------------------3-3--1-1--0-0---------------------|

E:---------------------3-3------------------3-3--1-1--0-0--1-1--3-3------------------3-3--1-1--3-3--33|

 

A:-3-3-3-3-3-3-3-3--------------------|---------------------------------------------------------------|

E---------------------3-3-3-3-3-3-3-3-| NOW PLAY RIFFA---RIFFB---RIFFC---RIFFD-|

 

RIFFE

G--------5---- | -----------|--------2 ---| -2-2--2-0--| -------------------------------------------------------

D------7--7-7-|-----5-7-5|-----3---3-3-|---------3 -|--------------------------------------------------------

A-0-0------- --| --------- |--------------|---------- --|--5-5--5-3----3---3-3-0-3-0---0----00--1-1--3-3

E----------- --|-3-3------|-1-1----------|----------- -|-------------3-----------------3---1-1---------------

 

A-----2-2--3-3--5-5---3-3-3-3--2-2-2-2-0-0-0-0--------------3-3--1-1--0-0----------------------------

E-3-3------------------------------------------------------1-1-1-1-----------------3-3--1-1--0-0-1-1--3-3

 

A-3-3--11--0-0--------------------------------3-3--2-2--0-0---------------------------------3

E-----------------3-3----1-1--3-3---1-1--3-3-----------------3-3--1-1--0-0--1-1--3-3

THATS THE SONG!

ANY COMMENTS

IF YOU HAVE ANY BADRELIGION BASS TABS SEND ME THEM AT mchristensen@halnetcom.net

 

 

Return to my Bad Religion bass tabs page

The Tablature is Copyright its respective owners.

Sign Up For My Newsletter
Subscribe | Unsubscribe

Site Map | Disclaimer | Privacy Policy | Media Kit | Submissions/Corrections

Website © 2000-2014 mattsmusicpage.com. All rights reserved.

Legal & DMCA: Matt's Music Page has been providing lyrics and tabs in a legal way, paying royalties each year to a few organizations. Then, all lyrics and tabs were removed from the site. Now, there's a new owner to the site, which purchased it August 26, 2014, and he is in negotiation to obtain licensing from BMI at the moment. If you have a specific DMCA request -- please do not hesitate to contact me via the contact button on top. I will do my very best to keep this site fully legal.

Get our toolbar!

 

RECORD PIN 45rpm Hall of Fame 1989 Rolling Stones Stevie Wonder Temptations LtEd
$16.95
RECORD PIN 45rpm Hall of Fame 1989 Rolling Stones Stevie Wonder Temptations LtEd picture


The Rolling Stones Guitar Musical Christmas Ornament Plays IM FREE
$12.0
The Rolling Stones Guitar Musical Christmas Ornament Plays IM FREE picture


The Rolling Stones Musical Christmas Ornament Guitar that plays IM FREE
$12.0
The Rolling Stones Musical Christmas Ornament Guitar that plays IM FREE picture


The Rolling Stones Musical Christmas Ornament Guitar plays Ruby Tuesday -Flowers
$12.0
The Rolling Stones Musical Christmas Ornament Guitar plays Ruby Tuesday -Flowers picture


The Rolling Stones Christmas Ornament Guitar Music Plays "She's A Rainbow"
$12.0
The Rolling Stones Christmas Ornament Guitar Music Plays