Your One-Stop Source For
Music Lyrics
Bass and Guitar Tabs
and More...
>Music Lyrics Bass and Guitar Tabs

 

The Tabs Are Below

Learn To Read Tab
Chords Handbook
Corrections & Additions
Get Official Tab
Bad Religion tabs @ 911Tabs

SONG:PITY THE DEAD

ARTIST:BAD RELIGION the best punk band ever!!!!!!!

its most of the song just put it all toghter you should be able to play the rest

 

joins in with guitar |

A|--------------------------------------|-7--7---5-5-----------|-7-7--5-5--0-0--2-2|

E|--3-3----5-5----7-7-7-7--7-7-7-7|--------------3-3--5-5|-----------------------

 

A-7-7---5-5--------3-3-3-3-3-3-3-3-3-3-3-3----5------------7-7--7-7--2-2-|

E|-------------3-3-------------------------------------------------------------------|

 

A----------------------5-5-5-5----------------------------------5-5-5-5---------------------

E|-0-0-0-0--3-3-3-3----------0-0-0-0---0-0-0-0--3-3-3-3------------5-5-5-5--0-0-0-0

 

A--3-3-3-3-----------5-5-5-5

E-------------3-3-3-3----------0-0-0-0--3-3-3-3-5-5-5-5-

 

well that is the worst of it these are the mailn prts sorr i didnt get the rest done

IF YOU HAVE ANY BAD RELIGION BASS TABS PLEASE SEND THEM TO ME AT

ANDREWC93@HOTMAIL.COM

 

 

 

 

 

Return to my Bad Religion bass tabs page

The Tablature is Copyright its respective owners.

Sign Up For My Newsletter
Subscribe | Unsubscribe

Site Map | Disclaimer | Privacy Policy | Media Kit | Submissions/Corrections

Website © 2000-2014 mattsmusicpage.com. All rights reserved.

Legal & DMCA: Matt's Music Page has been providing lyrics and tabs in a legal way, paying royalties each year to a few organizations. Then, all lyrics and tabs were removed from the site. Now, there's a new owner to the site, which purchased it August 26, 2014, and he is in negotiation to obtain licensing from BMI at the moment. If you have a specific DMCA request -- please do not hesitate to contact me via the contact button on top. I will do my very best to keep this site fully legal.

Get our toolbar!

 

Vintage Ingraham 8 Day Banjo Wall Clock - Runs
$24.97
Vintage Ingraham 8 Day Banjo Wall Clock - Runs picture


Women with Banjos ....... Banjo Cabinet Photo
$50.0
Women with Banjos ....... Banjo Cabinet Photo picture


c1880s CDV - Man Playing BANJO by Wm DEAN - Harrisonburg VIRGINIA w/Hat on Floor
$127.5
c1880s CDV - Man Playing BANJO by Wm DEAN - Harrisonburg VIRGINIA w/Hat on Floor picture


Brass Monkey Chimpanzee Musician Playing Banjo Guitar Statue Sculpture Figure
$34.99
Brass Monkey Chimpanzee Musician Playing Banjo Guitar Statue Sculpture Figure picture


Large Antique New Haven Clock Co. Whitney 8 Day Banjo Clock With Chimes 1920's
$174.99
Large Antique New Haven Clock Co. Whitney 8 Day Banjo Clock With Chimes 1920's picture