Your One-Stop Source For
Music Lyrics
Bass and Guitar Tabs
and More...
Music Lyrics Bass and Guitar Tabs

 

The Tabs Are Below

Learn To Read Tab
Chords Handbook
Corrections & Additions
Get Official Tab
Bad Religion tabs @ 911Tabs

I noticed you didn't have part III as well so here it is:

G-----------------------------------------------------------------------------

---------

D-----------------------------------------------------------------------------

----------

A-0-0-0-0-0-0-0-0-3-3-3-3-3-3-3-3----------------------0-0-0-0-0-0-0-0

E--------------------------------------------3-3-3-3-3-3-3-3------------------

----

Play each one as 16th notes. There is one other part about 43 sec into the

song it changes one time then another 43 sec. it changes again:

G-----------------------------------------------------------------------------

-------------------------------

D--------------------------------------------5-5-5-5-5-5-5-5-2-2-2-2-2-2-2-2--

-------------------

A-0-0-0-0-0-0-0-0-3-3-3-3-3-3-3-3-------------------------------------------0-

0-0-0-0-0-0-0

E-----------------------------------------------------------------------------

-------------------------------

I always thought this song sounded a lot harded but I was wrong. The only

hard part is playing it at 16th notes for 2 mins.

Along The Way

Ben Kersey

(Ragetest@aol.com)

 

 

Return to my Bad Religion bass tabs page

The Tablature is Copyright its respective owners.

Sign Up For My Newsletter
Subscribe | Unsubscribe

Site Map | Disclaimer | Privacy Policy | Media Kit | Submissions/Corrections

Website © 2000-2014 mattsmusicpage.com. All rights reserved.

Legal & DMCA: Matt's Music Page has been providing lyrics and tabs in a legal way, paying royalties each year to a few organizations. Then, all lyrics and tabs were removed from the site. Now, there's a new owner to the site, which purchased it August 26, 2014, and he is in negotiation to obtain licensing from BMI at the moment. If you have a specific DMCA request -- please do not hesitate to contact me via the contact button on top. I will do my very best to keep this site fully legal.

Get our toolbar!

 

VINTAGE SORRENTO MUSIC JEWELRY BOX
$45.0
VINTAGE SORRENTO MUSIC JEWELRY BOX picture


VINTAGE LACQUERED MUSIC BOX JAPAN
$25.99
VINTAGE LACQUERED MUSIC BOX JAPAN picture


Vintage Kehlsteinhaus Bavaria Germany Colorscope Cow Bell View Master Music Box
$8.99
Vintage Kehlsteinhaus Bavaria Germany Colorscope Cow Bell View Master Music Box picture


VINTAGE SCHMIDT Signed Collectible Musical Turning Clown
$9.99
VINTAGE  SCHMIDT Signed Collectible Musical Turning Clown picture


Vintage - Linen - Postcard - Stage - Radio City Music Hall - New York City
$3.75
Vintage - Linen - Postcard - Stage - Radio City Music Hall - New York City   picture