Your One-Stop Source For
Music Lyrics
Bass and Guitar Tabs
and More...
Music Lyrics Bass and Guitar Tabs

 

The Tabs Are Below

Learn To Read Tab
Chords Handbook
Corrections & Additions
Get Official Tab
Bad Religion tabs @ 911Tabs

Tabbed this out a while ago, it sounds right to me.

 

Intro: guitar pickslide

 

Verse:

G---------------------------------------------------------------------

D---------------------------------------------------------------------

A-5550/555---------3330/333-111111-33-5550/555--------3330/333----3333

E---------111111111---------------------------11111111--------1111----

 

G-------------------------------------------------------

D-----32---------------------------------------------3~-

A-5556--31-111111-33333333-1111-0000-55555555-11111-----

E-------------------------------------------------------

 

Chorus x3

G------------------------------------

D------------------------------------

A-55555555------------------00000000-

E---------66666666-1111111-----------

 

G------------------------------------

D------------------------------------

A-11111111-3333---5~-----------------

E------------------------------------

 

verse, chorus

 

bridge

G------------------------------------------------------------------------

D-----------------------------------------------------------------------

A-55555555--------3330/333-111111-33-5550/5555--------3330/3333----3333-

E---------11111111----------------------------11111111---------1111-----

 

G--------------------------------------

D--------------------------------------

A-5550/5555-00000000-11101110111011-33-

E--------------------------------------

 

bass solo

G------------------------------------------------------------------

D------------------------------------------------------------------

A-55555555--------33333333-1111-3333-55555555--------33333333---3~-

E---------11111111---------------------------11111111--------1~----

 

last part of last verse

G-------------------------------------------------------

D-----32---------------------------------------------3~-

A-5556--31-111111-33333333-1111-0000-55555555-11111-----

E-------------------------------------------------------

 

Final Chorus x3

G------------------------------------

D------------------------------------

A-55555555------------------00000000-

E---------66666666-1111111-----------

 

G--------------------------------------------

D----------------------3p2-----3-------------

A-11111111-3333-5555555---11111--33333---5~--

E--------------------------------------------

 

Have Fun

 

 

 

Return to my Bad Religion bass tabs page

The Tablature is Copyright its respective owners.

Sign Up For My Newsletter
Subscribe | Unsubscribe

Site Map | Disclaimer | Privacy Policy | Media Kit | Submissions/Corrections

Website © 2000-2014 mattsmusicpage.com. All rights reserved.

Legal & DMCA: Matt's Music Page has been providing lyrics and tabs in a legal way, paying royalties each year to a few organizations. Then, all lyrics and tabs were removed from the site. Now, there's a new owner to the site, which purchased it August 26, 2014, and he is in negotiation to obtain licensing from BMI at the moment. If you have a specific DMCA request -- please do not hesitate to contact me via the contact button on top. I will do my very best to keep this site fully legal.

Get our toolbar!