Your One-Stop Source For
Music Lyrics
Bass and Guitar Tabs
and More...
Music Lyrics Bass and Guitar Tabs

 

The Tabs Are Below

Learn To Read Tab
Chords Handbook
Corrections & Additions
Get Official Tab
Bad Religion tabs @ 911Tabs

Song: 21st Century Digital Boy

Album: Stranger Than Fiction/Against the Grain

Tabed By: Jay!!!

E-mail Jay:SK8AJAY@aol.com

 

The version of this song I used was off of the Against The Grain album.

I think it is better on that album than any other versions I've heard.

I'm not sure if there's a difference between the Against the Grain album

and the STF album and if there is it's not noticeable and is probably in

the solo part. Oh well, Play this and be happy with what I give ya.

I think it's all right... Below this are the chords (scroll down the page).

If ya got any hard to find BR bass tabs please send em to

SK8AJAY@AOL.COM... (and to me -Roger)

 

(**) Play a bunch of times (listen to song for timing & length)

( X ) Muted String

(@ ) Stop String

 

(to help on your timing, after each line break in the lyrics play the line

above again)

 

Start lightly and end harder- A:-5-5-5**

 

(#1) Play 2x

G:--------------------------------------------

D:--------------------------------------------

A:--5-5-x-x----------------------------------

E :-----------1-1-x-x-3-3-x-x-6-6-5-5-----

I can't Believe It...

The way you look some times

 

(#2)

G:-------------------------------------------------

D:-------------------------------------------------

A:--5--5--------3--3---------5-5-x-x------------

E :---------1--1--------3--3------------1-1-x-x-5@ (drum solo)

Like a trampled Flag on a city street, Oh yeah

 

(#1) Play 2x

G:--------------------------------------------

D:--------------------------------------------

A:--5-5-x-x----------------------------------

E :-----------1-1-x-x-3-3-x-x-6-6-5-5-----

And I don't want It...The things your offerin me

 

(#2)

G:-------------------------------------------------

D:-------------------------------------------------

A:--5--5--------3--3---------5-5-x-x------------

E :---------1--1--------3--3------------1-1-x-x-5-5-5**

Symbolized bar coed quick ID, Oh Yeah

 

(#3) Chorus

G:----------------------------

D:----------------------------

A:--5-5--------------3-3---

E :--------6-6--1-1---------

cause Im a 21st century digital boy

I don't know how to live but I gota lot of toys

 

(#3½)Chorus

G:-------------------------|-----------------------------

D:-------------------------|-----------------------------

A:--5-5-------------------|--5-5-----------------------

E :--------6-6--1-1--3-3-|-------6-6--1-1--3-3--5-5**

My daddy's a lazy middle class intelectual

My mommy's on valium so inefectual, Ain't life a mystery, yeah

 

Play (#1) 2 x but stop on 3rd fret - E string the second time for drum solo

 

(#1) Play 2x

G:--------------------------------------------

D:--------------------------------------------

A:--5-5-x-x----------------------------------

E :-----------1-1-x-x-3-3-x-x-6-6-5-5-----

I can't explain It...

The things there sayin to me

 

(#2)

G:-------------------------------------------------

D:-------------------------------------------------

A:--5--5--------3--3---------5-5-x-x------------

E :---------1--1--------3--3------------1-1-x-x-5-5-5-5**

It's goin ya ya ya ya ya ya ya, Oh yeah

 

(#3) Chorus

G:----------------------------

D:----------------------------

A:--5-5--------------3-3---

E :--------6-6--1-1---------

Cause I'm a 21st century digital Boy

I don't know how to read but I gota lot of toys

 

(#3½)Chorus

G:--------------------------|----------------------------

D:--------------------------|----------------------------

A:--5-5--------------------|-5-5-----------------------

E :--------6-6--1-1--3-3--|------6-6--1-1--5-5-5**

My daddy's a lazy middle class intelectual

My mommy's on valium so inefectual, Ain't life a mystery, yeah

 

(#4) Listen to song for the timing on this part...you'll get it

G:------------------------------------------------------

D:------------------------------------------------------

A:--3-3**--------------------------------------------

E :-----------3-3**--6-6**--1-1**--5-5**------

(switch frets after each line here)

Tried to tell ya about no control

But now I really don't know

and then ya told me

how bad you had to suffer

is that really all you had to offer

 

(Guitar Solo)

Just play the chourus exactly like how you would if someone were singing...but don't sing....tricky eh?

(#3) Chorus

G:----------------------------

D:----------------------------

A:--5-5--------------3-3---

E :--------6-6--1-1---------

 

(#3½)Chorus

G:--------------------------|----------------------------

D:--------------------------|----------------------------

A:--5-5--------------------|-5-5-----------------------

E :--------6-6--1-1--3-3--|------6-6--1-1--5-5-5**

 

Then just go strait into the chourus and start singing again

 

(#3) Chorus

G:----------------------------

D:----------------------------

A:--5-5--------------3-3---

E :--------6-6--1-1---------

See I'm a 21st century digital Boy

I don't know how to read but I gota lot of toys

 

(#3½)Chorus

G:-------------------------|-----------------------------

D:-------------------------|-----------------------------

A:--5-5-------------------|--5-5-----------------------

E :--------6-6--1-1--3-3-|-------6-6--1-1--5-5-5**

My daddy's a lazy middle class intelectual

My mommy's on valium so inefectual, Ain't life a mystery, yeah

 

Keep playing Chorus till the end of the song and you did it...

 

 

Heres the chords if you dont wanna go through all that and you can remember where they come in at...

 

Verse 1: D F G A# A

Verse 2: D F C G D F A

Verse 3: C G A# F A

Chorus 1: D A# F C

Chorus 2: D A# F G

Chorus 3: D A# F A

 

Thats all ya gotta remember, now heres the order

 

Verse 1 x2

Verse 2

Verse 1 x2

Verse 2

Chorus 1 x2

Chorus 2

Chorus 3

 

________________________________

 

Song: 21st Century Digital Boy

Album: Stranger Than Fiction/Against the Grain/All Ages

Tabed By: Jay!!!

E-mail Jay:SK8AJAY@aol.com

 

Heres the chords for you people who like chords

 

Verse 1: D F G A# A

Verse 2: D F C G D F A

Verse 3: C G A# F A

Chorus 1: D A# F C

Chorus 2: D A# F G

Chorus 3: D A# F A

 

Thats all ya gotta remember, now heres the order

 

Verse 1 x2

Verse 2

Verse 1 x2

Verse 2

Chorus 1 x2

Chorus 2

Chorus 3

Verse 1 x2 (mute on A 2nd time)

Verse 1 x2

Verse 2

Chorus 1 x2

Chorus 2

Chorus 3

Verse 3

Chorus 1 x2

Chorus 2

Chorus 3

keep repeating choruses till you decide to finish the song

 

 

 

Return to my Bad Religion bass tabs page

The Tablature is Copyright its respective owners.

Sign Up For My Newsletter
Subscribe | Unsubscribe

Site Map | Disclaimer | Privacy Policy | Media Kit | Submissions/Corrections

Website © 2000-2014 mattsmusicpage.com. All rights reserved.

Legal & DMCA: Matt's Music Page has been providing lyrics and tabs in a legal way, paying royalties each year to a few organizations. Then, all lyrics and tabs were removed from the site. Now, there's a new owner to the site, which purchased it August 26, 2014, and he is in negotiation to obtain licensing from BMI at the moment. If you have a specific DMCA request -- please do not hesitate to contact me via the contact button on top. I will do my very best to keep this site fully legal.

Get our toolbar!