Your One-Stop Source For
Music Lyrics
Bass and Guitar Tabs
and More...
>Music Lyrics Bass and Guitar Tabs

 

The Bad Religion Guitar Tabs Are Below

Learn To Read Tab
Chords Handbook
Corrections & Additions
Get Official Tab
Bad Religion tabs @ 911Tabs

52 SECONDS

As recorded by Bad Religion

(From the 2007 Album NEW MAPS OF HELL)

 

Transcribed by Whoabot

 

 

Words and Music by Bad Religion

Arranged by Bad Religion

 

Gtr I (E A D G B E) - 'Untitled'

Gtr II (E A D G B E) - 'Untitled'

Gtr III (E A D G B E) - 'Untitled'

 

Intro

Q=169

N.C.

4/4 3/4

Gtrs I, III

Wx3 H.

|------------|-------|

|------------|-------|

|------------|-------|

|------------|-------|

|------------|-------|

|------------|-------|

 

 

G5 Gb5 F5 E5

4/4

Gtr I

H H H H

|---------------------|---------------------|

|---------------------|---------------------|

|---------------------|---------------------|

|-5---------4---------|-3---------2---------|

|---------------------|---------------------|

|---------------------|---------------------|

|

| Gtr III

| E S E S E E S E S E E S E S E E S E S E

|---------------------|---------------------|

|---------------------|---------------------|

|---------------------|---------------------|

|-5-5-5-5-5-4-4-4-4-4-|-3-3-3-3-3-2-2-2-2-2-|

|-5-5-5-5-5-4-4-4-4-4-|-3-3-3-3-3-2-2-2-2-2-|

|-3-3-3-3-3-2-2-2-2-2-|-1-1-1-1-1-0-0-0-0-0-|

 

 

G5 Gb5 F5 E5

Gtr II

H H H Q Q

|---------------------|-----------------------||

|---------------------|-----------------4-----||

|---------------------|-----------------------||

|-5---------4---------|-3---------2-----------||

|---------------------|-----------------------||

|---------------------|-----------------------||

|

| E S E S E E S E S E E S E S E E S E S E

|---------------------|-----------------------||

|---------------------|-----------------------||

|---------------------|-----------------------||

|-5-5-5-5-5-4-4-4-4-4-|-3-3-3-3-3-2-2-2---2-2-||

|-5-5-5-5-5-4-4-4-4-4-|-3-3-3-3-3-2-2-2---2-2-||

|-3-3-3-3-3-2-2-2-2-2-|-1-1-1-1-1-0-0-0---0-0-||

 

 

Verse

G Gb F E

W +H. Q

||------------------------------------------|-------------------------------------------|

||o-----------------------------------------|---------------------------------4---------|

||---5--------------------------------------|-(5)---------------------------------------|

||------------------------------------------|-------------------------------------------|

||o-----------------------------------------|-------------------------------------------|

||------------------------------------------|-------------------------------------------|

|

| E S E S E E S E S E E S E S E E S E S E

||------------------------------------------|-------------------------------------------|

||o-----------------------------------------|-------------------------------------------|

||--(4)-(4)-(4)-(4)-(4)-(3)-(3)-(3)-(3)-(3)-|-(2)-(2)-(2)-(2)-(2)-(1)-(1)-(1)---(1)-(1)-|

||---5---5---5---5---5---4---4---4---4---4--|--3---3---3---3---3---2---2---2-----2---2--|

||o--5---5---5---5---5---4---4---4---4---4--|--3---3---3---3---3---2---2---2-----2---2--|

||---3---3---3---3---3---2---2---2---2---2--|--1---1---1---1---1---0---0---0-----0---0--|

 

 

G Gb F E

W +H. Q

|-----------------------------------------|--------------------------------------------||

|-----------------------------------------|---------------------------------4---------o||

|--5--------------------------------------|-(5)----------------------------------------||

|-----------------------------------------|--------------------------------------------||

|-----------------------------------------|-------------------------------------------o||

|-----------------------------------------|--------------------------------------------||

|

| E S E S E E S E S E E S E S E E S E S E

|-----------------------------------------|--------------------------------------------||

|-----------------------------------------|-------------------------------------------o||

|-(4)-(4)-(4)-(4)-(4)-(3)-(3)-(3)-(3)-(3)-|-(2)-(2)-(2)-(2)-(2)-(1)-(1)-(1)---(1)-(1)--||

|--5---5---5---5---5---4---4---4---4---4--|--3---3---3---3---3---2---2---2-----2---2---||

|--5---5---5---5---5---4---4---4---4---4--|--3---3---3---3---3---2---2---2-----2---2--o||

|--3---3---3---3---3---2---2---2---2---2--|--1---1---1---1---1---0---0---0-----0---0---||

 

 

horus

C5 Ab5

W Q E Q Q. +W Q E Q E Q

||------------------|------------------|-------------------|-----------------||

||o-----------------|-4-----4----------|-------------------|-4-----4-----4---||

||--5---------------|-----5-----5------|-(5)---------------|-----5-----5-----||

||------------------|------------------|-------------------|-----------------||

||o-----------------|------------------|-------------------|-----------------||

||------------------|------------------|-------------------|-----------------||

|

| E E E E E E E E E E E E E E E E E E E E E E E E E E E E E E E E

||------------------|------------------|-------------------|-----------------||

||o-----------------|------------------|-------------------|-----------------||

||--5-5-5-5-5-5-5-5-|-5-5-5-5-5-5--5-5-|-------------------|-----------------||

||--5-5-5-5-5-5-5-5-|-5-5-5-5-5-5--5-5-|--6--6-6-6-6-6-6-6-|-6-6-6-6-6-6-6-6-||

||o-3-3-3-3-3-3-3-3-|-3-3-3-3-3-3--3-3-|--6--6-6-6-6-6-6-6-|-6-6-6-6-6-6-6-6-||

||------------------|------------------|--4--4-4-4-4-4-4-4-|-4-4-4-4-4-4-4-4-||

 

 

Bridge

G5 Gb5 F5 E5

E +E E +E E +E E +E E +E E +E E +E E +E

|---------------------------------|-------------------------------------|

|-4-(4)s==5---(5)s6-(6)s==7---(7)s|=8-(8)s==9---(9)s10-(10)s==11---(11)-|

|---------------------------------|-------------------------------------|

|---------------------------------|-------------------------------------|

|---------------------------------|-------------------------------------|

|---------------------------------|-------------------------------------|

|

| E S E S E E S E S E E S E S E E S E S E

|---------------------------------|-------------------------------------|

|---------------------------------|-------------------------------------|

|---------------------------------|-------------------------------------|

|-5--5--5---5--5--4--4--4---4--4--|-3--3--3---3--3---2---2--2----2---2--|

|-5--5--5---5--5--4--4--4---4--4--|-3--3--3---3--3---2---2--2----2---2--|

|-3--3--3---3--3--2--2--2---2--2--|-1--1--1---1--1---0---0--0----0---0--|

 

 

G5 Gb5 F5 E5

E +E E +E E +E E +E E +E E +E E +E E +E

|-----------------------------------------|---------------------------------------------||

|-12-(12)s==13---(13)s14-(14)s==15---(15)s|=16-(16)s==17---(17)s18-(18)s==19---(19)\---o||

|-----------------------------------------|---------------------------------------------||

|-----------------------------------------|---------------------------------------------||

|-----------------------------------------|--------------------------------------------o||

|-----------------------------------------|---------------------------------------------||

|

| E S E S E E S E S E E S E S E E S E S E

|-----------------------------------------|---------------------------------------------||

|-----------------------------------------|--------------------------------------------o||

|-----------------------------------------|---------------------------------------------||

|--5---5--5----5---5---4---4--4----4---4--|--3---3--3----3---3---2---2--2----2---2------||

|--5---5--5----5---5---4---4--4----4---4--|--3---3--3----3---3---2---2--2----2---2-----o||

|--3---3--3----3---3---2---2--2----2---2--|--1---1--1----1---1---0---0--0----0---0------||

 

 

Out-Verse

G Gb F E

W +H. Q

|-----------------------------------------|-------------------------------------------|

|-----------------------------------------|---------------------------------4---------|

|--5--------------------------------------|-(5)---------------------------------------|

|-----------------------------------------|-------------------------------------------|

|-----------------------------------------|-------------------------------------------|

|-----------------------------------------|-------------------------------------------|

|

| E S E S E E S E S E E S E S E E S E S E

|-----------------------------------------|-------------------------------------------|

|-----------------------------------------|-------------------------------------------|

|-(4)-(4)-(4)-(4)-(4)-(3)-(3)-(3)-(3)-(3)-|-(2)-(2)-(2)-(2)-(2)-(1)-(1)-(1)---(1)-(1)-|

|--5---5---5---5---5---4---4---4---4---4--|--3---3---3---3---3---2---2---2-----2---2--|

|--5---5---5---5---5---4---4---4---4---4--|--3---3---3---3---3---2---2---2-----2---2--|

|--3---3---3---3---3---2---2---2---2---2--|--1---1---1---1---1---0---0---0-----0---0--|

 

 

G Gb F E

W +H. Q

|-----------------------------------------|--------------------------------------------|

|-----------------------------------------|---------------------------------4----------|

|--5--------------------------------------|-(5)----------------------------------------|

|-----------------------------------------|--------------------------------------------|

|-----------------------------------------|--------------------------------------------|

|-----------------------------------------|--------------------------------------------|

|

| E S E S E E S E S E E S E S E E S E S E

|-----------------------------------------|--------------------------------------------|

|-----------------------------------------|--------------------------------------------|

|-(4)-(4)-(4)-(4)-(4)-(3)-(3)-(3)-(3)-(3)-|-(2)-(2)-(2)-(2)-(2)-(1)-(1)-(1)---(1)-(1)--|

|--5---5---5---5---5---4---4---4---4---4--|--3---3---3---3---3---2---2---2-----2---2---|

|--5---5---5---5---5---4---4---4---4---4--|--3---3---3---3---3---2---2---2-----2---2---|

|--3---3---3---3---3---2---2---2---2---2--|--1---1---1---1---1---0---0---0-----0---0---|

 

 

G Gb F E

W +H. Q

|-----------------------------------------|-------------------------------------------|

|-----------------------------------------|---------------------------------4---------|

|--5--------------------------------------|-(5)---------------------------------------|

|-----------------------------------------|-------------------------------------------|

|-----------------------------------------|-------------------------------------------|

|-----------------------------------------|-------------------------------------------|

|

| E S E S E E S E S E E S E S E E S E S E

|-----------------------------------------|-------------------------------------------|

|-----------------------------------------|-------------------------------------------|

|-(4)-(4)-(4)-(4)-(4)-(3)-(3)-(3)-(3)-(3)-|-(2)-(2)-(2)-(2)-(2)-(1)-(1)-(1)---(1)-(1)-|

|--5---5---5---5---5---4---4---4---4---4--|--3---3---3---3---3---2---2---2-----2---2--|

|--5---5---5---5---5---4---4---4---4---4--|--3---3---3---3---3---2---2---2-----2---2--|

|--3---3---3---3---3---2---2---2---2---2--|--1---1---1---1---1---0---0---0-----0---0--|

 

 

G Gb F E C5

W +H. Q W

|-----------------------------------------|-----------------------------------------------|----------*|

|-----------------------------------------|-----------------------------------------------|----------*|

|--5--------------------------------------|-(5)-------------------------------------------|----------*|

|-----------------------------------------|-----------------------------------------------|----------*|

|-----------------------------------------|-----------------------------------------------|----------*|

|-----------------------------------------|-----------------------------------------------|----------*|

|

| E S E S E E S E S E E S E S E E S E S S S q H.

|-----------------------------------------|-----------------------------------------------|----------*|

|-----------------------------------------|-----------------------------------------------|----------*|

|-(4)-(4)-(4)-(4)-(4)-(3)-(3)-(3)-(3)-(3)-|-(2)-(2)-(2)-(2)-(2)-(1)-(1)-(1)---(1)-(1)-(1)-|----------*|

|--5---5---5---5---5---4---4---4---4---4--|--3---3---3---3---3---2---2---2-----2---2---2--|-5--------*|

|--5---5---5---5---5---4---4---4---4---4--|--3---3---3---3---3---2---2---2-----2---2---2--|-3--------*|

|--3---3---3---3---3---2---2---2---2---2--|--1---1---1---1---1---0---0---0-----0---0---0--|-3--------*|

 

 

 

Duration Legend

---------------

W - whole; H - half; Q - quarter; E - 8th; S - 16th; T - 32nd; X - 64th; a - acciaccatura

+ - note tied to previous; . - note dotted; .. - note double dotted

Uncapitalized letters represent notes that are staccato (1/2 duration)

Irregular groupings are notated above the duration line

Duration letters will always appear directly above the note/fret number it represents the

duration for. Duration letters with no fret number below them represent rests. Multi-

bar rests are notated in the form Wxn, where n is the number of bars to rest for. Low

melody durations appear below the staff

 

Tablature Legend

----------------

h - hammer-on

p - pull-off

b - bend

pb - pre-bend

r - bend release (if no number after the r, then release immediately)

/\ - slide into or out of (from/to "nowhere")

s - legato slide

S - shift slide

- natural harmonic

[n] - artificial harmonic

n(n) - tapped harmonic

~ - vibrato

tr - trill

T - tap

TP - trem. picking

PM - palm muting

\n/ - tremolo bar dip; n = amount to dip

\n - tremolo bar down

n/ - tremolo bar up

/n\ - tremolo bar inverted dip

= - hold bend; also acts as connecting device for hammers/pulls

<> - volume swell (louder/softer)

x - on rhythm slash represents muted slash

o - on rhythm slash represents single note slash

 

Misc Legend

-----------

| - bar

|| - double bar

||o - repeat start

o|| - repeat end

*| - double bar (ending)

: - bar (freetime)

$ - Segno

& - Coda

Tempo markers - = BPM(8/16=s8/s16), where s8 = swing 8ths, s16 = swing 16ths

Return to my Bad Religion Guitar Tabs page

The Tablature is Copyright its respective owners.

Sign Up For My Newsletter
Subscribe | Unsubscribe

Site Map | Disclaimer | Privacy Policy | Media Kit | Submissions/Corrections

Website © 2000-2014 mattsmusicpage.com. All rights reserved.

Legal & DMCA: Matt's Music Page has been providing lyrics and tabs in a legal way, paying royalties each year to a few organizations. Then, all lyrics and tabs were removed from the site. Now, there's a new owner to the site, which purchased it August 26, 2014, and he is in negotiation to obtain licensing from BMI at the moment. If you have a specific DMCA request -- please do not hesitate to contact me via the contact button on top. I will do my very best to keep this site fully legal.

Get our toolbar!

 

Tin Miller genuine draft beer guitar sign
$34.99
Tin Miller genuine draft beer guitar sign picture


Vintage Graceful Christmas Winged Angel Statue Strumming A Guitar-9" Unique
$9.99
Vintage Graceful Christmas Winged Angel Statue Strumming A Guitar-9


1960‘s KNBC NBC Radio Station Photo s Doug Pledger San Francisco Gretsch Guitar
$29.0
1960‘s KNBC NBC Radio Station Photo s Doug Pledger San Francisco Gretsch Guitar picture


Chinese Figurines Lot of 5 Guitar, Warrior, Staff, Robes (4" tall) "USED"
$39.99
Chinese Figurines Lot of 5 Guitar, Warrior, Staff, Robes (4


Lladro FIGURINE Girl With Guitar (L4871G) 72857
$109.95
Lladro FIGURINE Girl With Guitar (L4871G) 72857 picture