Your One-Stop Source For
Music Lyrics
Bass and Guitar Tabs
and More...
Music Lyrics Bass and Guitar Tabs

 

The Avril Lavigne Guitar Tabs Are Below

Learn To Read Tab
Chords Handbook
Corrections & Additions
Get Official Tab
Avril Lavigne tabs @ 911Tabs

 

Tab by: -madhater-

Song name: When You're Gone

Artist : Avril Lavinge Rockzzz...

 

*hello there... this is my very first one...

hope this one gets accepted! ^_^

 

*if you have comments/suggestions/violent reactions/etc feel

free to hit me back with a comment!

 

*Please rate my work! thx pow!

 

UPDATE!:

---------------

07/17/2007 - Fixed the Piano Part! A lot of people are complaining! ^_^

---------------

 

[INTRO]:

 

Old Intro:

Piano:

e:|--14h15-12-14h15-12--|--14h15-12----14h15-22--|--14h15-12-14h15-12--|--14h15-12----14h15-22--|

B:|---------------------|------------------------|---------------------|------------------------|

G:|---------------------|-----------12-----------|---------------------|-----------12-----------|

D:|---------------------|------------------------|---------------------|------------------------|

A:|--15-----------------|------------------------|--15-----------------|------------------------|

E:|---------------------|--12--------------------|---------------------|--12--------------------|

(cont'd)

e:|--14h15-12-14h15-12--|--14h15-12----14h15-22--|-----------15-14-----|---------|

B:|---------------------|------------------------|--------15-------15--|---------|

G:|---------------------|-----------12-----------|-----14--------------|--14~----|

D:|---------------------|------------------------|--12-----------------|---------|

A:|--15-----------------|------------------------|---------------------|---------|

E:|---------------------|--12--------------------|---------------------|---------|

 

 

UPDATED! INTRO!:

Piano: (uhmmm... I think it just got more dificult... ^_^ but it still is the same thing!

e:|--14h15-12-14h15-12--|--------------------22--|--14h15-12-14h15-12--|--------------------22--|

B:|---------------------|--19h20-------19h20-----|---------------------|--19h20-------19h20-----|

G:|---------------------|--------21--------------|---------------------|--------21--------------|

D:|---------------------|------------------------|---------------------|------------------------|

A:|--15-----------------|--19-------22-----------|--15-----------------|--19-------22-----------|

E:|---------------------|-(12)-------------------|---------------------|-(12)-------------------|

(cont'd)

e:|--14h15-12-14h15-12--|--------------------22--|-----------15-14-----|---------|

B:|---------------------|--19h20-------19h20-----|--------15-------15--|---------|

G:|---------------------|--------21--------------|-----14--------------|--14~----|

D:|---------------------|------------------------|--12-----------------|---------|

A:|--15-----------------|--19-------22-----------|---------------------|---------|

E:|---------------------|--12--------------------|---------------------|---------|

 

 

[VERSE 1]:

 

Guitar: (Acoustic) Continuous Strumming Here! :)

G D/F# Em C D

e:|--3---3---3---3---3---3---3---3-----------0-------2---2---3---2---|

B:|--3---3---3---3---3---3---3---3---3---3---3---3---3---3---3---3---|

G:|--0---0---2---2---0---0---0---0---0---0---0---0---2---2---2---2---|

D:|--0---0---0---0---2---2---2---2---2---2---2---2---0---0---0---0---|

A:|--2---2---x---x---2---2---2---2---3---3---3---3-------------------|

E:|--3---3---2---2---0---0---0---0-----------------------------------|

Lead: *enters on the D chord

e:|--------------3-2~~-----|

B:|------------3-----------|

G:|------------------------|

D:|------------------------|

A:|------------------------|

E:|------------------------|

G D/F# Em

I always needed time on my own...

C

I never thought I'd...

D

Need you there when I cry...

\/------------\/

Guitar: (Acoustic) Continuous Strumming Here! :)

G D/F# Em C D

e:|--3---3---3---3---3---3---3---3-----------0-------2---2---3---2---|

B:|--3---3---3---3---3---3---3---3---3---3---3---3---3---3---3---3---|

G:|--0---0---2---2---0---0---0---0---0---0---0---0---2---2---2---2---|

D:|--0---0---0---0---2---2---2---2---2---2---2---2---0---0---0---0---|

A:|--2---2---x---x---2---2---2---2---3---3---3---3-------------------|

E:|--3---3---2---2---0---0---0---0-----------------------------------|

Lead:

e:|--------------------3-2~~-------------------------------3-2~~-----|

B:|------------------3-------3~~-------------------------3-----------|

G:|------------------------------------------------------------------|

D:|------------------------------------------------------------------|

A:|------------------------------------------------------------------|

E:|------------------------------------------------------------------|

G D/F# Em

And the days feel like years when I'm alone...

C

And the bed where you lie...

D

It's made up on your side...

 

 

[REFRAIN]:

Guitar: (Acoustic)

e:|--0---0---0---0---3---3---3---3---3---3---3---3---2---2---3---2--|

B:|--1---1---1---1---3---3---3---3---3---3---3---3---3---3---3---3--|

G:|--2---2---2---2---0---0---0---0---0---0---0---0---2---2---2---2--|

D:|--2---2---2---2---0---0---0---0---2---2---2---2---0---0---0---0--|

A:|--0---0---0---0---2---2---2---2---3---3---3---3------------------|

E:|-----------------------------------------------------------------|

Lead: (this starts soft then picks up as you go...)

e:|--3-2-3-2-3-2-3-2-3-2-3-2-3-2-3-2-3-2-3-2-3-2-3-2-3-2-3-2-5-5-5-5--|

B:|--3-3-3-3-3-3-3-3-3-3-3-3-3-3-3-3-3-3-3-3-3-3-3-3-3-3-3-3-3-3-3-3--|

G:|-------------------------------------------------------------------|

D:|-------------------------------------------------------------------|

A:|-------------------------------------------------------------------|

E:|-------------------------------------------------------------------|

Am

When you walk away...

G/B

I count the steps that you take...

C D

Do you see how much I need you right now...

 

[CHORUS]:

< a little pickslide before chorus ^_^ >

 

C Em D

e:|-------------0---0---2---3---3---2--|

B:|---3h5--5----0---0---3---3---3---3--|

G:|---5----5----0---0---2---2---2---2--|

D:|---5----5----2---2---0---0---0---0--|

A:|---3----3----2---2------------------|

E:|-------------0---0------------------|

C

When you're gone...

Em D

The pieces of my heart are missing you...

 

C Em D

e:|-------------0---0---2---3---3---2--|

B:|---3h5--5----0---0---3---3---3---3--|

G:|---5----5----0---0---2---2---2---2--|

D:|---5----5----2---2---0---0---0---0--|

A:|---3----3----2---2------------------|

E:|-------------0---0------------------|

C

When you're gone...

Em D

The face I came to know is missing too...

 

e:|---0---0---3---3---3---3---3--3---3---3---2~~--|

B:|---1---1---3---3---3---3---3--3---3---3---3~~--|

G:|---2---2---0---0---0---0---2--2---0---0---2~~--|

D:|---2---2---2---2---0---0---0--0---2---2---0~~--|

A:|---0---0---3---3---2---2---x--x---3---3--------|

E:|-------------------3---3---2--2----------------|

Am C

When you're gone the words I need to hear...

G D/F# C

To always get me through the day...

D (hold)

And make it okay...

 

 

[INTERLUDE]:

Goes along with guitar: C-Em C-Em C-Em -D-Dsus-D

Piano:

e:|-------14h15-12-14h15-12--|--14h15-12----14h15-22--|--14h15-12-14h15-12--|--14h15-12----14h15-22--|

B:|--------------------------|------------------------|---------------------|------------------------|

G:|--------------------------|-----------12-----------|---------------------|-----------12-----------|

D:|--------------------------|------------------------|---------------------|------------------------|

A:|-------15-----------------|------------------------|--15-----------------|------------------------|

E:|--------------------------|--12--------------------|---------------------|--12--------------------|

I miss... you... ... ... ...

(cont'd)

e:|--14h15-12-14h15-12--|--14h15-12----14h15-22--|-----------15-14-----|---------|

B:|---------------------|------------------------|--------15-------15--|---------|

G:|---------------------|-----------12-----------|-----14--------------|--14~----|

D:|---------------------|------------------------|--12-----------------|---------|

A:|--15-----------------|------------------------|---------------------|---------|

E:|---------------------|--12--------------------|---------------------|---------|

 

[VERSE 2]: The same as Verse 1, but no more Lead... (naahh...)

G D/F# - Em

I've never felt this way before...

C D

Everything that I do...

- D-Dsus-D

Reminds me of you...

G D/F# - Em

And the clothes you left that lie on my floor...

C

And the smell's just like you...

- D

I love the things that you do...

 

 

(Repeat Refrain)

 

(Repeat Chorus)

 

[BRIDGE]: Just Rock On with chords...

Bm C

We were made for each other...

G

I'll keep forever...

D B7

I know we were... yeah...

Em

I know I ever wanted was for you to know

C

Everything I do I give my heart and soul

A/C# D

I can only breathe I need to pity I am when me yeahh!!!

 

(Repeat Chorus)

 

Outro: The Same as the Intro...

 

Return to my Avril Lavigne Guitar Tabs page

The Tablature is Copyright its respective owners.

Sign Up For My Newsletter
Subscribe | Unsubscribe

Site Map | Disclaimer | Privacy Policy | Media Kit | Submissions/Corrections

Website © 2000-2014 mattsmusicpage.com. All rights reserved.

Legal & DMCA: Matt's Music Page has been providing lyrics and tabs in a legal way, paying royalties each year to a few organizations. Then, all lyrics and tabs were removed from the site. Now, there's a new owner to the site, which purchased it August 26, 2014, and he is in negotiation to obtain licensing from BMI at the moment. If you have a specific DMCA request -- please do not hesitate to contact me via the contact button on top. I will do my very best to keep this site fully legal.

Get our toolbar!