Your One-Stop Source For
Music Lyrics
Bass and Guitar Tabs
and More...
>Music Lyrics Bass and Guitar Tabs

 

The Avril Lavigne Bass Tabs Are Below

Learn To Read Tab
Chords Handbook
Corrections & Additions
Get Official Tab
Avril Lavigne tabs @ 911Tabs

Avril Lavigne

Stop Standing There

Goodbye Lullaby

2011 RCA Records

Submitted by: paramore_fans@yahoo.com

 

Tuning: Standard EADGBe

 

Key: C

 

 

Intro Drumbeats

G|---

D|---

A|---

E|-3-

 

 

Verses:

 

All This Talking to you...

C Em Am G

G|------5-|--------|--------|-----|

D|----5---|------2-|------7-|-----|

A|-3------|----2---|----7---|-----|

E|--------|-0------|-5------|-3-3-|

 

 

All this thinking of you

C Em Am G

G|------5--5-0-5|---------------|---------------|------------|

D|----5---------|------2--2-0-2-|------7--7-5-7-|------------|

A|-3------------|----2----------|----7----------|------10-10-|

E|--------------|-0-------------|-5-------------|-3-3--------|

 

 

Chorus: x2

C G

G|-----------------------------5---|---------------------------------|

D|---2-----------------------5---5-|-----------------------------5---|

A|-3---3-3-3-3-3-3-3-3-3-3-3-------|---2-----------------------5---5-|

E|---------------------------------|-3---3-3-3-3-3-3-3-3-3-3-3-------|

 

Am F

G|-----------------------------2---|---------------------------------|

D|---2-----------------------2---2-|-----------------------------3---|

A|-0---0-0-0-0-0-0-0-0-0-0-0-------|---0-----------------------3---3-|

E|---------------------------------|-1---1-1-1-1-1-1-1-1-1-1-1-------|

 

 

Bridge:

 

stop Standing here...

G Am F

G|----|----|-------|

D|----|----|-------|

A|-10-|-12-|-8---8-|

E|----|----|-------|

 

Stop acting like you don't care..

Am G F

G|----|---|-------|

D|-7--|-5-|-3---3-|

A|----|---|-------|

E|----|---|-------|

 

Stop being scared..

G Am F

G|-----------------|-----------------|---------------------------------|

D|-----------------|-----------------|---------------------------------|

A|-----------------|-----------------|---------------------------------|

E|-3-3-3-3-3-3-3-3-|-5-5-5-5-5-5-5-5-|-1-1-1-1-1-1-1-1-1-1-1-1-1-1-1-1-|

 

Stop acting like you don't care..

Am G F

G|-----------------|-----------------|------------------------------10----|

D|-----------------|-----------------|---------------------------10----10-|

A|-----------------|-----------------|-----------------8-8-8-8-8----------|

E|-5-5-5-5-5-5-5-5-|-3-3-3-3-3-3-3-3-|-1-1-1-1-1-1-1-1--------------------|

Return to my Avril Lavigne Bass Tabs tabs page

The Avril Lavigne Bass Tablature is Copyright its respective owners.

Sign Up For My Newsletter
Subscribe | Unsubscribe

Site Map | Disclaimer | Privacy Policy | Media Kit | Submissions/Corrections

Website © 2000-2014 mattsmusicpage.com. All rights reserved.

Legal & DMCA: Matt's Music Page has been providing lyrics and tabs in a legal way, paying royalties each year to a few organizations. Then, all lyrics and tabs were removed from the site. Now, there's a new owner to the site, which purchased it August 26, 2014, and he is in negotiation to obtain licensing from BMI at the moment. If you have a specific DMCA request -- please do not hesitate to contact me via the contact button on top. I will do my very best to keep this site fully legal.

Get our toolbar!

 

Mini 4 Hole Harmonica Model Stainless Steel Metal Key Chain Loop Key Ring Chain
$0.01
Mini 4 Hole Harmonica Model Stainless Steel Metal Key Chain Loop Key Ring Chain picture


Vintage 1950s Hohner Marine Band Harmonica Advertising Display Instrument Large
$149.99
Vintage 1950s Hohner Marine Band Harmonica Advertising Display Instrument Large picture


1983 Hohner Marine Band Harmonica Impressive Vintage Print Ad
$12.99
1983 Hohner Marine Band Harmonica Impressive Vintage Print Ad picture


Carl Freed & Harlequin harmonica band antique photo
$125.0
Carl Freed & Harlequin harmonica band antique photo picture


#harmonica - Funny Hashtag Ceramic Coffee Mug 11oz
$18.99
#harmonica - Funny Hashtag Ceramic Coffee Mug 11oz picture