Your One-Stop Source For
Music Lyrics
Bass and Guitar Tabs
and More...
>Music Lyrics Bass and Guitar Tabs

 

The Avril Lavigne Guitar Tabs Are Below

Learn To Read Tab
Chords Handbook
Corrections & Additions
Get Official Tab
Avril Lavigne tabs @ 911Tabs

--------------------------------------------------------

Sponge Bob Square Pants Theme - AVRIL LAVIGNE

----------------------------------------------------------------------------

Tabbed by: Robbie Harper

Email: robbiehpr_17@hotmail.co.uk

 

It's almost the same 3 chords which are used throughout except for a slight

change in the verse......

 

 

intro

 

"ARE YOU READY KIDS, I SAID ARE YOU READY??"

e|-----------------------|

B|-----------------------|

G|-------------555-------|

D|--5--x--3x3--555--5----|X4

A|--5--x--3x3--333--5----|

E|--3--x--1x1-------3----|

 

verse

 

"HE LIVES IN A PINEAPPLE UNDER THE SEA," e|-----------------------|

B|-----------------------|

G|-------------555-------|

D|--5--x--3x3--555--5----|

A|--5--x--3x3--333--5----|

E|--3--x--1x1-------3----|

"SPONGEBOB SQUARE PANTS!!!"

 

 

"ABSORBENT AND YELLOW AND POUROUS IS HE," e|------------------------|

B|------------------------|

G|--------5x5-------------|

D|--5--x--5x5--4444--5----|

A|--5--x--3x3--4444--5----|

E|--3--x-------2222--3----|

"SPONGEBOB SQUARE PANTS!!!"

 

 

"IF NAUTICAL NONSENSE BE SOMETHING YOU WISH," e|-----------------------|

B|-----------------------|

G|-------------555-------|

D|--5--x--3x3--555--5----|

A|--5--x--3x3--333--5----|

E|--3--x--1x1-------3----|

"SPONGEBOB SQUARE PANTS!!!"

 

 

"THEN DROP ON MY DECK AND FLOP LIKE A FISH!" e|------------------------|

B|------------------------|

G|--------5x5-------------|

D|--5--x--5x5--4444--5----|

A|--5--x--3x3--4444--5----|

E|--3--x-------2222--3----|

"SPONGEBOB SQUARE PANTS!!!"

 

 

 

chorus

e|-----------------------|

B|-----------------------|

G|-----------555---------|

D|--55--333--555--555----|X4

A|--55--333--333--555----|

E|--33--111-------333----|

"SPONGEBOB SQUARE PANTS, SPONGEBOB SQUARE PANTS, SPONGEBOB SQUARE PANTS,

SPONGEBOB SQUARE PANTS!!!!!!!"

 

 

 

 

THERE WE GO,

the end

Return to my Avril Lavigne Guitar Tabs page

The Tablature is Copyright its respective owners.

Sign Up For My Newsletter
Subscribe | Unsubscribe

Site Map | Disclaimer | Privacy Policy | Media Kit | Submissions/Corrections

Website © 2000-2014 mattsmusicpage.com. All rights reserved.

Legal & DMCA: Matt's Music Page has been providing lyrics and tabs in a legal way, paying royalties each year to a few organizations. Then, all lyrics and tabs were removed from the site. Now, there's a new owner to the site, which purchased it August 26, 2014, and he is in negotiation to obtain licensing from BMI at the moment. If you have a specific DMCA request -- please do not hesitate to contact me via the contact button on top. I will do my very best to keep this site fully legal.

Get our toolbar!

 


Fender Guitar Sticker Decal. Stratocaster Guitars. Vintage Replica 3 Sizes
$
Fender Guitar Sticker Decal. Stratocaster Guitars. Vintage Replica 3 Sizes picture


Vintage Replica Fender Guitar Sticker Decal. Electric Guitars and Amps. 3 Sizes
$
Vintage Replica Fender Guitar Sticker Decal. Electric Guitars and Amps. 3 Sizes picture


Vintage Rush Pin Rock Roll Band Guitar Lapel Hat Bag Collectible
$
Vintage Rush Pin Rock Roll Band Guitar Lapel Hat Bag Collectible picture


Vintage 4.5” Hand Carved Painted Wood Fisherman playing Guitar Ukulele Asian?
$
Vintage 4.5” Hand Carved Painted Wood Fisherman playing Guitar Ukulele Asian? picture


Gibson Guitar Logo 3x5 ft Flag Banner
$
Gibson Guitar Logo 3x5 ft Flag Banner picture


Fender Guitar Logo 3x5 ft Flag Banner Bass Amps Audio
$
Fender Guitar Logo 3x5 ft Flag Banner Bass Amps Audio picture


Gibson Guitar 12" Black and White Metal Sign
$
Gibson Guitar 12


Vintage Beswick England Monkey Band Guitarist Figurine Guitar Chipped
$
Vintage Beswick England Monkey Band Guitarist Figurine Guitar Chipped picture


Vintage Wind Up Musical Guitar made in Hong Kong plays “Love Me Tender” Elvis
$
Vintage Wind Up Musical Guitar made in Hong Kong plays “Love Me Tender” Elvis picture


Brass Guitar Roach Clip/ Cigarette Clip/ Brass Guitar Clip **Free Shipping**
$
Brass Guitar Roach Clip/ Cigarette Clip/ Brass Guitar Clip **Free Shipping** picture