Your One-Stop Source For
Music Lyrics
Bass and Guitar Tabs
and More...
>Music Lyrics Bass and Guitar Tabs

 

The Tabs Are Below

Learn To Read Tab
Chords Handbook
Corrections & Additions
Get Official Tab
Avril Lavigne tabs @ 911Tabs

Standard Tuning GDAE

 

ohoh ohoh ohoh / So much for my happy ending

|----------------------

|----------------------

|----------------------

|77-55-33-22-77-55-33-2

 

Verses

|2---9---7---5---2---9---7---5----------------

|--------------------------------2---9---7---5

|---------------------------------------------

|---------------------------------------------

 

Chorus

|--------------

|--------------

|555-----------

|---55500004321 x3

 

All his time...my happy ending

|---------------

|---------------

|---------------

|555555555550000

 

ohoh ohoh ohoh / So much for my happy ending

|----------------------

|----------------------

|----------------------

|77-55-33-22-77-55-33-2

 

Verses

|2---9---7---5---2---9---7---5----------------

|--------------------------------2---9---7---5

|---------------------------------------------

|---------------------------------------------

 

Chorus

 

Bridge

|

|

|-------------------00-00/55-55/0

|55-55/00-00/55-55/0-------------000000000055555555

 

Chorus

Ohoh Ohoh

 

 

Return to my Avril Lavigne bass tabs page

The Tablature is Copyright its respective owners.

Sign Up For My Newsletter
Subscribe | Unsubscribe

Site Map | Disclaimer | Privacy Policy | Media Kit | Submissions/Corrections

Website © 2000-2014 mattsmusicpage.com. All rights reserved.

Legal & DMCA: Matt's Music Page has been providing lyrics and tabs in a legal way, paying royalties each year to a few organizations. Then, all lyrics and tabs were removed from the site. Now, there's a new owner to the site, which purchased it August 26, 2014, and he is in negotiation to obtain licensing from BMI at the moment. If you have a specific DMCA request -- please do not hesitate to contact me via the contact button on top. I will do my very best to keep this site fully legal.

Get our toolbar!

 

Disneyland Book and Record Mickey Mouse, Brave Little Tailor 7", 33 1/3 LP Vinyl
$5.99
Disneyland Book and Record Mickey Mouse, Brave Little Tailor 7


Disneyland Book and Record 101 Dalmatians, 1965, 7" Vinyl, 33 1/3 LP
$11.49
Disneyland Book and Record 101 Dalmatians, 1965, 7


45 RPM vinyl record spacer button
$2.5
45 RPM vinyl record spacer button picture


the world is a ghetto, war lp, vinyl album, record, collectible
$3.99
the world is a ghetto, war lp, vinyl album, record, collectible picture


Dogfish Head Record Store Day 2016 Craft Beer Pint Glass Album Vinyl NEW
$9.99
Dogfish Head Record Store Day 2016 Craft Beer Pint Glass Album Vinyl NEW picture