Your One-Stop Source For
Music Lyrics
Bass and Guitar Tabs
and More...
Music Lyrics Bass and Guitar Tabs

 

The Tabs Are Below

Learn To Read Tab
Chords Handbook
Corrections & Additions
Get Official Tab
Avril Lavigne tabs @ 911Tabs

Artist- Avril Lavigne

Track- He Wasn't

Tuning- Standard

Tabbed By- Jonny

 

~ = Let Note Ring

 

Bass comes in on "What happened to my Saturday?"

 

Verse 1

G|----------------------------------|

D|----------------------------------|

A|--5555-5--5555-5-53333-3--3333-3--|

E|----------------------------------|

 

G|--------------------------|

D|--------------------------|

A|--5555-5--5555-5--11--00--|

E|--------------------------|

 

Pre Chorus

G|------------------|

D|------------------|

A|--8~--7~--8~--7~--|

E|------------------|

 

Chorus

G|------------------------------------------|

D|------------------------------------------| (Ten's not 1's and 0's)

A|--555555555555--101010101010101010101010--| x3

E|------------------------------------------|

 

Verse 2

G|------------------|

D|------------------|

A|--3333-3--3333-3--|

E|------------------|

 

G|-----------------------------------|

D|-----------------------------------|

A|-35555-5--5555-5--53333-3--3333-3--| x2

E|-----------------------------------|

 

G|--------------------------|

D|--------------------------|

A|--5555-5--5555-5--11--00--|

E|--------------------------|

 

Pre Chorus

 

Chorus (x4 NOT x3)

 

Bridge

G|-----------------------|

D|-----------------------|

A|--3~--7~--5~-10-10-55--| x4

E|-----------------------|

 

Chorus

G|----------------------------|

D|----------------------------|

A|--101010101010101010101010--| (Ten's not 1's and 0's)

E|----------------------------|

 

G|------------------------------------------|

D|------------------------------------------| (Ten's not 1's and 0's)

A|--555555555555--101010101010101010101010--| x5

E|------------------------------------------|

 

Outro

G|--------------|

D|--------------|

A|--3~--7~--5~--|

E|--------------|

 

The chorus can also be played:

G|-----------------------------|

D|---------------555555555555--|

A|--555555555555---------------|

E|-----------------------------|

Which is easier to play, however I think it doesn't sound as effective.

Also it sounds cool if you slide from the 5th fret to the 10th in the

Chorus.

 

 

Return to my Avril Lavigne bass tabs page

The Tablature is Copyright its respective owners.

Sign Up For My Newsletter
Subscribe | Unsubscribe

Site Map | Disclaimer | Privacy Policy | Media Kit | Submissions/Corrections

Website © 2000-2014 mattsmusicpage.com. All rights reserved.

Legal & DMCA: Matt's Music Page has been providing lyrics and tabs in a legal way, paying royalties each year to a few organizations. Then, all lyrics and tabs were removed from the site. Now, there's a new owner to the site, which purchased it August 26, 2014, and he is in negotiation to obtain licensing from BMI at the moment. If you have a specific DMCA request -- please do not hesitate to contact me via the contact button on top. I will do my very best to keep this site fully legal.

Get our toolbar!