Your One-Stop Source For
Music Lyrics
Bass and Guitar Tabs
and More...
Music Lyrics Bass and Guitar Tabs

 

The Audioslave Guitar Tabs Are Below

Learn To Read Tab
Chords Handbook
Corrections & Additions
Get Official Tab
Audioslave tabs @ 911Tabs

------------------------------------------------------------------|

Until We Fall- Audislave- Revelations- 2006-----------------------|

------------------------------------------------------------------|

Tabbed by: Nick Cottrell

Email: Cotchry@hotmail.com

 

 

Tuning:EADGBe

(Listen to song for strum pattern.)

 

This is played on an acoustic (Cornell) and an electric (Morello).

 

Acoustic Verse

 

Intro/Verse On the 3rd time of the first verse, play this (G).

Then play this at the end of each verse

e|----0--------0--------0------------- e|-3- ----|

B|----1--------1--------1-----------1- B|-3- -1-----|

G|----0----0---2--------2-----------2-<======= G|-0- Instead of-2--|

D|----2-0h2----2--0h2-3-3-3-3h2-0---2- D|-0- -2-----|

A|--3-3------0-0------------------0--- A|-2- -------|

E|------------------------------------ E|-3- ----|

 

 

1st Chorus (This part is Questionable.)

Electric

e|------------------------------------------------------------------|

B|---3---3---3---3----3---3---3------------3---3---3---3----3---3---|

G|--2-2-2-2-2-2-2-2--2-2-2-2-2-2----------2-2-2-2-2-2-2-2--2-2-2--3-|

D|-0---3------------0---3----------------0---3------------0---3---3-|

A|-------------2-----------------2/3-2/3-------------2------------1-|

E|------------------------------------------------------------------|

 

Acoustic

e|-2-2--------------|

B|-3-3---3---3---3--|

G|-2-2--2-2-2-2-2-2-|

D|-----3------------| etc...

A|-------------2----|

E|------------------|

 

The rest of the choruses are the same but with distrtion and an D being played on electric also.

 

SOLO (Electric)

 

e|-----------------------------------------------------|

B|-5h3---3--------3-5h3---3/5---------3-5-5b---3-------|

G|-----5----0h2-5-------5-----5-0h2-5--------5---4~~~~-|

D|-----------------------------------------------------|

A|-----------------------------------------------------|

E|-----------------------------------------------------|

 

Bridge

 

e|-------------------------------------|

B|-------------------------------------|

G|---------------3-5-------------------|

D|-555-5-3---3-5-----555-5-3---3-5-3-5-| REPEAT 2X

A|-555-----5---------555-----5---------|

E|-333---------------333---------------|

 

Bridge 2

 

e|-0---0----------|

B|--3---3---------|

G|----------------|

D|------- Repeat--| 8X

A|----------------|

E|----------------|

 

End song on this:

 

e|-3-

B|-4-

G|-5-

D|-0-

A|---

E|---

 

If you find any problems, especially with the chorus, then e-mail me. Thanks a lot.

Return to my Audioslave Guitar Tabs page

The Tablature is Copyright its respective owners.

Sign Up For My Newsletter
Subscribe | Unsubscribe

Site Map | Disclaimer | Privacy Policy | Media Kit | Submissions/Corrections

Website © 2000-2014 mattsmusicpage.com. All rights reserved.

Legal & DMCA: Matt's Music Page has been providing lyrics and tabs in a legal way, paying royalties each year to a few organizations. Then, all lyrics and tabs were removed from the site. Now, there's a new owner to the site, which purchased it August 26, 2014, and he is in negotiation to obtain licensing from BMI at the moment. If you have a specific DMCA request -- please do not hesitate to contact me via the contact button on top. I will do my very best to keep this site fully legal.

Get our toolbar!

 

Starbucks You Are Here Coffee Mug/Cup KENTUCKY - Horses, Banjo, Blue, White
$19.99
Starbucks You Are Here Coffee Mug/Cup KENTUCKY - Horses, Banjo, Blue, White picture


KNOWLES ROCKWELL HERITAGE "THE BANJO PLAYER" FIRST EDITION 1989 PLATE COA
$5.99
KNOWLES ROCKWELL HERITAGE


Vintage Postcard 1981 Disney World Banjo Kings Main Street USA 1981 Postmark
$4.99
 Vintage Postcard 1981 Disney World Banjo Kings Main Street USA 1981 Postmark picture


Banjo Barometer With Thermometer Hygrometer 490mm
$84.76
Banjo Barometer With Thermometer Hygrometer 490mm picture


ANTIQUE JAPANESE NIPPON FIGURINE SET OF 3 WOMEN GEISHA PLAYING DRUM BANJO FAN
$24.0
ANTIQUE JAPANESE NIPPON FIGURINE SET OF 3 WOMEN GEISHA PLAYING DRUM BANJO FAN picture