Your One-Stop Source For
Music Lyrics
Bass and Guitar Tabs
and More...
Music Lyrics Bass and Guitar Tabs

 

The Audioslave Guitar Tabs Are Below

Learn To Read Tab
Chords Handbook
Corrections & Additions
Get Official Tab
Audioslave tabs @ 911Tabs

Sound of a Gun - Audioslave

Tabulated by Kyle Dixon

Tuning-Drop D

 

Intro

 

(CLEAR)

 

w/ delay

 

e|--16----16----16----16----20----20----20---20----18----18---18----18----|

B|-----17----17----17----17----17----17----17---17----17---17----17----17-|

G|------------------------------------------------------------------------|

D|------------------------------------------------------------------------|

A|------------------------------------------------------------------------|

D|------------------------------------------------------------------------|

 

e|--15----15----15----15----16----16----16---16----20----20---20----20----20----20----20-------14/----|

B|-----15----15----15----15----17----17----17---17----17---17----17----17----17----17----17----14/----|

G|---------------------------------------------------------------------------------------------14/----|

D|----------------------------------------------------------------------------------------------------|

A|----------------------------------------------------------------------------------------------------|

D|----------------------------------------------------------------------------------------------------|

 

Chorus

 

(DISTORTION)

 

e|--------------------------------------------------------------------------------------------------------------------------|

B|--------------------------------------------------------------------------------------------------------------------------|

G|--------------------------------------------------------------------------------------------------------------------------|

D|--0h2--0h2---0-----2-----0-----2------x-x-x----0-----5-----7-----x-x-x-----0-----2-----0-----2----x-x-x----0-----5-----7--|

A|-------------0-----2-----0-----2------x-x-x----0-----5-----7-----x-x-x-----0-----2-----0-----2----x-x-x----0-----5-----7--|

D|-------------0-----2-----0-----2------x-x-x----0-----5-----7-----x-x-x-----0-----2-----0-----2----x-x-x----0-----5-----7--|

 

Verse

 

(CLEAN)

 

E D C D

 

e|--------0-------------2-----------0---------2------------|

B|--------0-------------3-----------1---------3------------|

G|--------1-------------2-----------0---------2------------|

D|--------2-------------0-----------2---------0------------|

A|--------2-------------------------3----------------------|

D|---------------------------------------------------------|

 

E D C D

 

e|--------0-------------2-----------0---------2-----3h2-------------------------|

B|--------0-------------3-----------1---------3------------3-----3--------------|

G|--------1-------------2-----------0---------2---------------2-----------------|

D|--------2-------------0-----------2---------0---------------------------------|

A|--------2-------------------------3-------------------------------------------|

D|------------------------------------------------------------------------------|

 

E D C D

 

e|--------0-----0-----2-----2------0-----0-----2-----3h2---------------------------------------------------------------------|

B|--------0-----------3------------1-----------3------------3------3---------------------------------------------------------|

G|--------1-----------2------------0-----------2----------------2------------------------------------------------------------|

D|--------2-----------0------------2-----------0-----------------------------------------------------------------------------|

A|--------2------------------------3-----------------------------------------------------------------------------------------|

D|---------------------------------------------------------------------------------------------------------------------------|

 

E D C (DISTORTION)

 

e|--------0-----0-----2-----2-----0-----0------------------------------------------------------------------------------------|

B|--------0-----------3-----------1------------------------------------------------------------------------------------------|

G|--------1-----------2-----------0------------7----2------------------------------------------------------------------------|

D|--------2-----------0-----------2------------7----2------14/---------------------------------------------------------------|

A|--------2-----------------------3------------5----0------14/---------------------------------------------------------------|

D|---------------------------------------------------------14/---------------------------------------------------------------|

 

 

Chorus

 

(DISTORTION)

 

e|---------------------------------------------------------------------------------------------------------------------------|

B|---------------------------------------------------------------------------------------------------------------------------|

G|---------------------------------------------------------------------------------------------------------------------------|

D|--0h2--0h2---0-----2-----0-----2------x-x-x----0-----5-----7-----x-x-x-----0-----2-----0-----2----x-x-x----0-----5-----7---|

A|-------------0-----2-----0-----2------x-x-x----0-----5-----7-----x-x-x-----0-----2-----0-----2----x-x-x----0-----5-----7---|

D|-------------0-----2-----0-----2------x-x-x----0-----5-----7-----x-x-x-----0-----2-----0-----2----x-x-x----0-----5-----7---|

 

Verse

 

(CLEAN)

 

E D C D

 

e|--------0-------------2-----------0---------2------------------------------------------------------------------------------|

B|--------0-------------3-----------1---------3------------------------------------------------------------------------------|

G|--------1-------------2-----------0---------2------------------------------------------------------------------------------|

D|--------2-------------0-----------2---------0------------------------------------------------------------------------------|

A|--------2-------------------------3----------------------------------------------------------------------------------------|

D|---------------------------------------------------------------------------------------------------------------------------|

 

E D C D

 

e|--------0-------------2-----------0---------2-----3h2------------------------------------------------------------------|

B|--------0-------------3-----------1---------3-----------3------3-------------------------------------------------------|

G|--------1-------------2-----------0---------2---------------2----------------------------------------------------------|

D|--------2-------------0-----------2---------0--------------------------------------------------------------------------|

A|--------2-------------------------3------------------------------------------------------------------------------------|

D|-----------------------------------------------------------------------------------------------------------------------|

 

E D C D

 

e|------0-----0-----2-----2-----0-----0-----2-----3h2-------------------------------------------------------------------|

B|------0-----------3-----------1-----------3----------3------3---------------------------------------------------------|

G|------1-----------2-----------0-----------2--------------2------------------------------------------------------------|

D|------2-----------0-----------2-----------0---------------------------------------------------------------------------|

A|------2-----------------------3---------------------------------------------------------------------------------------|

D|----------------------------------------------------------------------------------------------------------------------|

 

E D C (DISTORTION)

 

e|------0-----0-----2-----2-----0-----0------------------------------------------------------------------------------|

B|------0-----------3-----------1------------------------------------------------------------------------------------|

G|------1-----------2-----------0------------7----2------------------------------------------------------------------|

D|------2-----------0-----------2------------7----2------14/---------------------------------------------------------|

A|------2-----------------------3------------5----0------14/---------------------------------------------------------|

D|-------------------------------------------------------14/---------------------------------------------------------|

 

 

Chorus

 

(DISTORTION)

 

e|-------------------------------------------------------------------------------------------------------------------------------|

B|-------------------------------------------------------------------------------------------------------------------------------|

G|-------------------------------------------------------------------------------------------------------------------------------|

D|---0h2--0h2---0-----2-----0-----2------x-x-x----0-----5-----7-----x-x-x-----0-----2-----0-----2----x-x-x----0-----5-----7------|

A|--------------0-----2-----0-----2------x-x-x----0-----5-----7-----x-x-x-----0-----2-----0-----2----x-x-x----0-----5-----7------|

D|--------------0-----2-----0-----2------x-x-x----0-----5-----7-----x-x-x-----0-----2-----0-----2----x-x-x----0-----5-----7------|

 

Solo

 

Amazing!!!

 

If I tried to tab it you'd start drooling all over your keyboard. Maybe if I get really

I'll try and figure it out otherwise YOU try yourself...lazy good for nothing...This is

first tab by the way, I looked up Sound of a Gun and it wasn't up to my standards so I

to waste about an hour figuring this one out. You're Welcome. Tell your friends.

 

Bridge

 

(some lyrics from Drown Me Slowly)

 

(CLEAN)

 

w/ delay

 

e|--16----16----16----16----20----20----20---20----18----18---18----18----|

B|-----17----17----17----17----17----17----17---17----17---17----17----17-|

G|------------------------------------------------------------------------|

D|------------------------------------------------------------------------|

A|------------------------------------------------------------------------|

D|------------------------------------------------------------------------|

?

e|--15----15----15----15----17----17----17---17----20----20---20----15----18----18----18----18----15----15----15----15------|

B|-----15----15----15----15----17----17----17---17----17---17----17----17----17----17----17----17----15----15----15----15---|

G|--------------------------------------------------------------------------------------------------------------------------|

D|--------------------------------------------------------------------------------------------------------------------------|

A|--------------------------------------------------------------------------------------------------------------------------|

D|--------------------------------------------------------------------------------------------------------------------------|

 

Chorus

 

(CLEAN)

 

E D C D

 

e|------0-----0-----2-----2-----0-----0-----2-----2----------|

B|------0-----------3-----------1-----------3----------------|

G|------1-----------2-----------0-----------2----------------|

D|------2-----------0-----------2-----------0----------------|

A|------2-----------------------3----------------------------|

D|-----------------------------------------------------------|

 

E D

 

e|------0-----0-----2-----2---------------------------------------------------------------------------------|

B|------0-----------3---------------------------------------------------------------------------------------|

G|------1-----------2------------5-5-5-5-5-5-5---7-7-7-7-7-7-7---12-12-12-12---16-16-16-16------------------|

D|------2-----------0------------5-5-5-5-5-5-5---7-7-7-7-7-7-7---12-12-12-12---16-16-16-16------------------|

A|------2------------------------3-3-3-3-3-3-3---5-5-5-5-5-5-5---9--9--9--9----14-14-14-14------------------|

D|----------------------------------------------------------------------------------------------------------|

 

Chorus

 

(DISTORTION)

 

e|----------------------------------------------------------------------------------------------------------------------------|

B|----------------------------------------------------------------------------------------------------------------------------|

G|----------------------------------------------------------------------------------------------------------------------------|

D|-----2-----0-----2-----0-----2------x-x-x----0-----5-----7-----x-x-x-----0-----2-----0-----2----x-x-x----0-----5-----7------|

A|-----2-----0-----2-----0-----2------x-x-x----0-----5-----7-----x-x-x-----0-----2-----0-----2----x-x-x----0-----5-----7------|

D|-----2-----0-----2-----0-----2------x-x-x----0-----5-----7-----x-x-x-----0-----2-----0-----2----x-x-x----0-----5-----7------|

 

e|------------------------------------------------------------------------------------------------------------------------------|

B|------------------------------------------------------------------------------------------------------------------------------|

G|------------------------------------------------------------------------------------------------------------------------------|

D|--0h2--0h2---0-----2-----0-----2------x-x-x----0-----5-----7-----x-x-x-----0-----2-----0-----2----x-x-x----0-----5-----7------|

A|-------------0-----2-----0-----2------x-x-x----0-----5-----7-----x-x-x-----0-----2-----0-----2----x-x-x----0-----5-----7------|

D|-------------0-----2-----0-----2------x-x-x----0-----5-----7-----x-x-x-----0-----2-----0-----2----x-x-x----0-----5-----7------|

 

e|------------------|

B|------------------|

G|------------------|

D|----2-(hold)------|

A|----2-------------|

D|----2-------------|

 

That's it that's one song in the bank next song.

Return to my Audioslave Guitar Tabs page

The Tablature is Copyright its respective owners.

Sign Up For My Newsletter
Subscribe | Unsubscribe

Site Map | Disclaimer | Privacy Policy | Media Kit | Submissions/Corrections

Website © 2000-2014 mattsmusicpage.com. All rights reserved.

Legal & DMCA: Matt's Music Page has been providing lyrics and tabs in a legal way, paying royalties each year to a few organizations. Then, all lyrics and tabs were removed from the site. Now, there's a new owner to the site, which purchased it August 26, 2014, and he is in negotiation to obtain licensing from BMI at the moment. If you have a specific DMCA request -- please do not hesitate to contact me via the contact button on top. I will do my very best to keep this site fully legal.

Get our toolbar!