Your One-Stop Source For
Music Lyrics
Bass and Guitar Tabs
and More...
Music Lyrics Bass and Guitar Tabs

 

The Audioslave Guitar Tabs Are Below

Learn To Read Tab
Chords Handbook
Corrections & Additions
Get Official Tab
Audioslave tabs @ 911Tabs

Somedays - Audioslave

-------------------------------------------------------------------------------

Tabbed by:Bas

Email:b_vice@hotmail.com

 

I updated the verse, which I have to thank Carlson-online for:

thanks Carlson-online =)

 

Tuning:DADGBe

 

 

 

INTRO

[play this part 3 times ] then [

e|----[-------------------------]------[-------------------------|

B|----[-------------------------]------[-------------------------|

G|----[-------------------------]------[-------------------------|

D|----[-------------------------]------[---------6-----6-----6---|

A|-8\-[------8p6-8--6p5-6--8p6-8]------[-----8p6---8p6---8p6-----|

D|----[--3-3--------------------]------[-3-3---------------------|

 

VERSE

Note that the e---18 is actually played by an other guitar (overdubbed)

so it is played actually like 18 times, over the D---8b's. Also note

that the last time only the part with the 1-3-3-etc. is played

 

e|-------------------------18-(12x)--------------------------------|

B|-----------------------------------------------------------------|

G|-----------------------------------------------------------------|

D|---------------------------------8b------------------------------| 4x

A|1-2-3-xx-1-2-3-xx-1-2-3------------------------------------------|

D|1-2-3-xx-1-2-3-xx-1-2-3----------8b------------------------------|

use wah for the above 2 notes:

press the pedal slow down while bending

the notes slowly...

 

CHORUS

 

[play this part 3 times ] then [

e|----[-------------------------]------[-------------------------|

B|----[-------------------------]------[-------------------------|

G|----[-------------------------]------[-------------------------|

D|----[-------------------------]------[---------6-----6-----6---| 2x

A|-8\-[------8p6-8--6p5-6--8p6-8]------[-----8p6---8p6---8p6-----|

D|----[--3-3--------------------]------[-3-3---------------------|

 

 

BREAKDOWN

 

e|---------------------------------------------------------------------------|

B|---------------------------------------------------------------------------|

G|-------------3..--------------------------------------------------------3..|

D|1..----------3..let ring-------------------------------------5-3--1..---3..|

A|1..let ring--1..----------11\-----/8\----1b~-3-1------/8\----3-1--1..---1..|

D|1..-----------------------------3------3-----3-1----3------3------1..------|

 

[phaser on here; keep swaying your hand in the rythm of the snare drum,

so you can fill the parts between the power chords with muting the strings ]

e|---------------------------------------------------------------------------|

B|---------------------------------------------------------------------------|

G|---------------------------------------------------------------------------|

D|-3-3-1-8-3-1-3-1-8-8-3-3-3-1-1-3-3-xxxx-3-3-1-8-3-1-3-1-8-8-3-1-3~---------|

A|-3-3-1-8-3-1-3-1-8-8-3-3-3-1-1-3-3-xxxx-3-3-1-8-3-1-3-1-8-8-3-1-3~---------|

D|-3-3-1-8-3-1-3-1-8-8-3-3-3-1-1-3-3-xxxx-3-3-1-8-3-1-3-1-8-8-3-1-3~---------|

 

 

SOLO

create a barrage of the notes you play with the delay, setting it to repeat the

notes shortly after you played them, round 500 ms.

 

tremolo pick all the notes

e|---------------------------------------------------------------------------|

B|-------------------------------------------------18-20-21------------------|

G|-13-----15-----17-----18-----17-----15-------15--17------------------------|

D|-15-----17-----18-----20-----18-----17-------13--15------------------------|

A|---------------------------------------------------------------------------|

D|---------------------------------------------------------------------------|

 

 

BRIDGE

 

e|-------------------------3-------------------------------------------------|

B|-2---1---4---6---6---1---3-------------------------------------------------|

G|-3---1---5---6---6---1---5-------------------------------------------------|

D|-3---3---6---8---8---3---5-------------------------------------------------|

A|-1---3---6---8---8---3---3-------------------------------------------------|

D|---------------------------------------------------------------------------|

 

[play this part 3 times ]then [play this part the last time]

e|---------------------------------------------------------------------------|

B|---------------------------------------------------------------------------|

G|---------------------------------------------------------------------------|

D|---------------------------------------------6------6------6---------------|

A|-8\-------8p6-8--8p6-8--8p6-8------------8p6----8p6----8p6-----------------|

D|-----3-3----------------------------3-3------------------------------------|

 

 

OUTRO

 

[play this part 3 times ] then [

e|----[-------------------------]------[-------------------------|

B|----[-------------------------]------[-------------------------|

G|----[-------------------------]------[-------------------------|

D|----[-------------------------]------[---------6-----6-----6---|

A|-8\-[------8p6-8--6p5-6--8p6-8]------[-----8p6---8p6---8p6-----|

D|----[--3-3--------------------]------[-3-3---------------------|

 

 

[play this part 3 times ] then [

e|----[-------------------------]------[-------------------------|

B|----[-------------------------]------[-------------------------|

G|----[-------------------------]------[-------------------------|

D|----[-------------------------]------[---------6..----3..------|

A|-8\-[------8p6-8--6p5-6--8p6-8]------[-----8p6-6..----3..------|

D|----[--3-3--------------------]------[-3-3-----6..----3..------|

 

Play in this order:

 

Intro

Verse

Chorus

Verse

Chorus

Breakdown

Solo

Bridge

Outro

 

| / slide up

| \ slide down

| h hammer-on

| p pull-off

| ~ vibrato

| + harmonic

| x Mute note

 

 

Return to my Audioslave Guitar Tabs page

The Tablature is Copyright its respective owners.

Sign Up For My Newsletter
Subscribe | Unsubscribe

Site Map | Disclaimer | Privacy Policy | Media Kit | Submissions/Corrections

Website © 2000-2014 mattsmusicpage.com. All rights reserved.

Legal & DMCA: Matt's Music Page has been providing lyrics and tabs in a legal way, paying royalties each year to a few organizations. Then, all lyrics and tabs were removed from the site. Now, there's a new owner to the site, which purchased it August 26, 2014, and he is in negotiation to obtain licensing from BMI at the moment. If you have a specific DMCA request -- please do not hesitate to contact me via the contact button on top. I will do my very best to keep this site fully legal.

Get our toolbar!