Your One-Stop Source For
Music Lyrics
Bass and Guitar Tabs
and More...
Music Lyrics Bass and Guitar Tabs

 

The Audioslave Bass Tabs Are Below

Learn To Read Tab
Chords Handbook
Corrections & Additions
Get Official Tab
Audioslave tabs @ 911Tabs

somedays by audioslave

 

Drop d (quite a lot of the new songs are in drop d)

 

Intro (faintly in the background)

|---|

|---|

|---|

|-3-|

 

Verse1

|----------------------1,3|------------------------------2|

|-------------------------|-------------------------------|

|-------------------------|-------------------------------|

|-1-2-3---1-2-3--1-2-3----|-1-2-3---1-2-3--1-2-3--3686363-|

 

|------------------------4|

|-------------------------|

|-------------------------|

|-1-2-3---1-2-3--1-2-3-/--|

 

Chorus

|-----------------|x3|-------1---1-----|

|-----313-1-1-313-| |-----31--31--313-|

|----------3------| |-----------------|

|-3-3-------------| |-3-3-------------|

 

Verse2

|--------------------1,3,5|------------------------------2|

|-------------------------|-------------------------------|

|-------------------------|-------------------------------|

|-1-2-3---1-2-3--1-2-3----|-1-2-3---1-2-3--1-2-3--3686363-|

 

|------------------------------4|-------------------------6|

|-------------------------------|--------------------------|

|-------------------------------|--------------------------|

|-1-2-3---1-2-3--1-2-3--9868686-|-1-2-3---1-2-3--1-2-3--/--|

 

Chorus (cuts off at the end for 8 on the low d string)

 

Bridge

|-----------------------------------------------------|

|-----------------------------------------------------|

|-----------------------------------------------------|

|-3-/15\--3--9860--3-/15\--3--8--6--1--------8--------|

 

Short break

 

Solo

|-----------------|

|-----------------|

|-----------------|

|-3-/15\--3--9860-|

 

Another short break then,

|----------------|---------------x3|-------1---1-----|

|----------------|-----313-313-313-|-----31--31--313-|

|----------------|-----------------|-----------------|

|-8---6-3---8-10-|-3-3-------------|-3-3-------------|

 

Chorus (cuts of at the end and ends on 3 (low d))

Return to my Audioslave Bass Tabs page

The Tablature is Copyright its respective owners.

Sign Up For My Newsletter
Subscribe | Unsubscribe

Site Map | Disclaimer | Privacy Policy | Media Kit | Submissions/Corrections

Website © 2000-2014 mattsmusicpage.com. All rights reserved.

Legal & DMCA: Matt's Music Page has been providing lyrics and tabs in a legal way, paying royalties each year to a few organizations. Then, all lyrics and tabs were removed from the site. Now, there's a new owner to the site, which purchased it August 26, 2014, and he is in negotiation to obtain licensing from BMI at the moment. If you have a specific DMCA request -- please do not hesitate to contact me via the contact button on top. I will do my very best to keep this site fully legal.

Get our toolbar!