Your One-Stop Source For
Music Lyrics
Bass and Guitar Tabs
and More...
Music Lyrics Bass and Guitar Tabs

 

The Audioslave Bass Tabs Are Below

Learn To Read Tab
Chords Handbook
Corrections & Additions
Get Official Tab
Audioslave tabs @ 911Tabs

Song: Original Fire

Artist: Audioslave

Tuning: DADG (Drop D)

Tabbed By: Skuzmeister

 

 

Intro (when guitar starts)

 

G||-----------|------------|------|

D||-----------|------------|------|

A||--(drums)--|-5/77777777-|------|

D||-----------|=====x8=====|-9--5-|

 

Verse 1

 

x7 (1,2,3,5,6,7) (4)

G|---------------------| |--------| |-2h3p2-0-2p0|

D|---------------------| |--------| |------------|

A|---------------------| |--------| |------------|

D|-2--2-2-0-2-/5-2-2-0-| |-2-0-5--| |------------|

 

 

|---------------------------|

|---------2-5-2-/5-2-/7-----|

|-----2-5-------------------|

|-2-5-------------------9-5-|

 

 

Chorus

 

G|--------------------------------------|

D|*-----------------------------------5-|

A|*-/7-7-/7-7-/7-7-7-/7-7-7-/7-7-/7-5---|

D|--------------------------------------|

 

|------------------------------------||----|

|-----------------------------------*||----|

|-/7-7-/7-7-/7-7-7-/7-7-7-/7-7------*||----|

|------------------------------9--5--||-2--|

 

 

break

 

Verse 2

x7 (1,2,3,5,7) (4) (6)

G|---------------------| |--------| |------------| |---------|

D|---------------------| |--------| |------------| |---------|

A|---------------------| |--------| |------------| |-2-5-2---|

D|-2--2-2-0-2-/5-2-2-0-| |-2-0-5--| |-/9~--------| |-------5-|

 

|---------------------------|

|---------2-5-2-/7-2-/9-----|

|-----2-5-------------------|

|-2-5-------------------9-5-|

 

 

Chorus

 

G|--------------------------------------|

D|*-----------------------------------5-|

A|*-/7-7-/7-7-/7-7-7-/7-7-7-/7-7-/7-5---|

D|--------------------------------------|

 

|------------------------------------||----|

|-----------------------------------*||----|

|-/7-7-/7-7-/7-7-7-/7-7-7-/7-7------*||-0~-|

|------------------------------9--5--||----|

 

Bridge

 

G|--------------------------------------------------------------------------|

D|--------------------------------------------------------------7h8p7-5-7p5-|

A|-------0~-2--5-----2--5--5/777777775/777777775/777777775/7777-------------|

D|-2--5-----------2~--------------------------------------------------------|

 

Solo

 

G|----------------------------------------------------------|

D|----------------------------------------------------------|

A|----------------------------------------------------------|

D|-2--2-2-0-2-/5-2-2-0-2-0-5--2--2-2-0-2-/5-2-2-0-5-2-7p5---|

 

|--------------------------------------------------------|

|--------------------------------------------------------|

|-----------------------------------0-----2--0---2-------|

|-2--2-2-0-2-/5-2-2-0-2-0-5--2-0-2-2---5-2------5---2----|

 

 

Bridge 2

 

G|---------------------------------------------------------------------------------------------------|

D|---------------------------------------------------------------------------------------------------|

A|------------------------------------------------------5/7777777-5/77777777-5/7777777-5/7777--------|

D|-2--2-2-0-2-/5-2-2-0-2-0-5--2--2-2-0-2-/5-2-2-0-2-0-5~---------------------------------------9--5--|

 

Last Chorus

 

G|--------------------------------------------------------|

D|--------------------------------------------------------|

A|--------------------------------------------------------|

D|-2--2-2-0-2-/5-2-2-0-2-0-5--2--2-2-0-2-/5-2-2-0-2-0-7p5-|

 

|--------------------------------------------------------|

|----------------------------------------------------7p5-|

|--------------------------------------------------------|

|-2--2-2-0-2-/5-2-2-0-2-0-5--2--2-2-0-2-/5-2-2-0-/9~-----|

 

|------------------------------------------------2h3p2-0-2p0-|

|------------------------------------------------------------|

|------------------------------------------------------------|

|-2--2-2-0-2-/5-2-2-0-2-0-5--2--2-2-0-2-/5-2-2-0-------------|

 

|-----------------------------------------------------------|

|-----------------------------------------------------------|

|-----------------------------------------------------------|

|-2--2-2-0-2-/5-2-2-0-2-0-5--2--2-2-0-2-/5-2-2-0-9--5--2~~~-|

Return to my Audioslave Bass Tabs page

The Tablature is Copyright its respective owners.

Sign Up For My Newsletter
Subscribe | Unsubscribe

Site Map | Disclaimer | Privacy Policy | Media Kit | Submissions/Corrections

Website © 2000-2014 mattsmusicpage.com. All rights reserved.

Legal & DMCA: Matt's Music Page has been providing lyrics and tabs in a legal way, paying royalties each year to a few organizations. Then, all lyrics and tabs were removed from the site. Now, there's a new owner to the site, which purchased it August 26, 2014, and he is in negotiation to obtain licensing from BMI at the moment. If you have a specific DMCA request -- please do not hesitate to contact me via the contact button on top. I will do my very best to keep this site fully legal.

Get our toolbar!

 

VINTAGE SORRENTO MUSIC JEWELRY BOX
$45.0
VINTAGE SORRENTO MUSIC JEWELRY BOX picture


VINTAGE LACQUERED MUSIC BOX JAPAN
$25.99
VINTAGE LACQUERED MUSIC BOX JAPAN picture


Vintage Kehlsteinhaus Bavaria Germany Colorscope Cow Bell View Master Music Box
$8.99
Vintage Kehlsteinhaus Bavaria Germany Colorscope Cow Bell View Master Music Box picture


VINTAGE SCHMIDT Signed Collectible Musical Turning Clown
$9.99
VINTAGE  SCHMIDT Signed Collectible Musical Turning Clown picture


Vintage - Linen - Postcard - Stage - Radio City Music Hall - New York City
$3.75
Vintage - Linen - Postcard - Stage - Radio City Music Hall - New York City   picture