Your One-Stop Source For
Music Lyrics
Bass and Guitar Tabs
and More...
Music Lyrics Bass and Guitar Tabs

 

The Audioslave Bass Tabs Are Below

Learn To Read Tab
Chords Handbook
Corrections & Additions
Get Official Tab
Audioslave tabs @ 911Tabs

Standered Tuning, E A D G, nothing special !!! DONT FORGET TO RATE TABS !!!

 

0:34

G|--------------------------------------------------|

D|--------------------------------------------5-7---|

A|5-5-5-5--5-5-5-5--7-7-7-7--5-5-5-5--7-7-7-7-----5-|

E|--------------------------------------------------|

 

0:52

G|------------------------|

D|--5-------7---7-------3-|

A|--------5---------------|

E|3---333-----5---5-555---|

 

1:03- play this part 3 times

G|--------------------------------------------------|

D|--------------------------------------------5-7---|

A|5-5-5-5--5-5-5-5--7-7-7-7--5-5-5-5--7-7-7-7-----5-|

E|--------------------------------------------------|

 

1:52- play this part twice

G|---------------------------|

D|--5-------7---7-------3-2--|

A|--------5------------------|

E|3---333-----5---5-555------|

 

2:20

G|-------------------------------------------------|

D|------2-4---------------------------------5-7----|

A|5-5-5-----5-5-0--7-7-5-----5----------5-------5--|

E|-----------------------------5-3--5-7---7--------|

 

2:36- 4 times

G|-------------------------------5-|

D|---------------4-----------5-7---|

A|5-5-5--5555--7---5-----3-5-------|

E|-------------------3-5-----------|

 

3:08- twice

G|---------------------------|

D|--5-------7---7-------3-2--|

A|--------5------------------|

E|3---333-----5---5-555------|

 

3:53

G|-------------------------------5-|

D|---------------4-----------5-7---|

A|5-5-5--5555--7---5-----3-5-------|

E|-------------------3-5-----------|

 

4:16

G|-------------------|

D|---------------4---|

A|5-5-5--5555--7---5-|

E|-------------------|

 

 

Return to my Audioslave Bass Tabs page

The Tablature is Copyright its respective owners.

Sign Up For My Newsletter
Subscribe | Unsubscribe

Site Map | Disclaimer | Privacy Policy | Media Kit | Submissions/Corrections

Website © 2000-2014 mattsmusicpage.com. All rights reserved.

Get our toolbar!