Your One-Stop Source For
Music Lyrics
Bass and Guitar Tabs
and More...
Music Lyrics Bass and Guitar Tabs

 

The Audioslave Guitar Tabs Are Below

Learn To Read Tab
Chords Handbook
Corrections & Additions
Get Official Tab
Audioslave tabs @ 911Tabs

The Curse

 

 

My second Tab, I Hope you enjoy it

 

 

Standard Tuning

 

 

Intro:

 

e[]---0--0--0--0----|

B[]---0--2--0--0----|

G[]---1--2--1--1----|

D[]---2--2--2--2----| Twice

A[]---2--0--2--2----|

E[]---0-----0--0----|

 

Verse:

 

E A E

Help me I don't know what I'm doin

E A E

Help me before I fall to ruin

B A E

And if I'm blind, I will lead you on

B A C#m B7

Come follow me now, before our time is gone

 

Chorus:

 

A C#m

And as you're laughing at this fool tonight

C A C

Let me rid myself of any line that I might use to trip you up

E C#m C

And as I'm howling at the moonlight, don't you kid yourself

B7 B7

I will be your luck

A B E A E E

and never be your curse

E A E E

never be your curse

 

 

Verse:

 

E A E

Help me I don't know what I'm saying

E A E

Sometimes this tongue can be betraying

B A E

And if I'm wrong, is that such a crime?

B A C#m B7

And if you want, you can set my words to right

 

 

Chorus:

 

A C#m

And as you're laughing at this fool tonight

C A C

Let me rid myself of any line that I might use to trip you up

E C#m C

And as I'm howling at the moonlight, don't you kid yourself

B7 B7

I will be your luck

 

 

Bridge:

 

F# A E E

And if your eyes forget to well

F# A E E

And if your lies forget to tell

B A C#m

And if our paths forget to cross

B7

It doesn't mean you're lost

 

 

Solo:

 

C#m B F# C#m B F#

 

e[]---------7-4-----5-4--4-----------------7-4-----5-4-------------------|

B[]------5--------------7-7-5-----------5--------------7-5---------5-----|

G[]--6-------------------------6----6--------------------------4-6---6---|

D[]----------------------------------------------------------------------|

A[]----------------------------------------------------------------------|

E[]----------------------------------------------------------------------|

 

C#m B F# C#m B

 

e[]---------7-4-----5-4-5-7-5-4-5-7-5-4-5-7-5-4-------------------7-4-------|

B[]------5--------------------------------------7-5------------5------------|

G[]--6------------------------------------------------6----6----------------|

D[]-------------------------------------------------------------------------|

A[]-------------------------------------------------------------------------|

E[]-------------------------------------------------------------------------|

 

 

F# F#

 

Chorus:

 

A C#m

And as you're laughing at this fool tonight

C A C

Let me rid myself of any line that I might use to trip you up

E C#m C

And as I'm howling at the moonlight, don't you kid yourself

A A/C

Cause even at my worst

 

E C#m

If you're laughing at this fool tonight

C A C

Let me rid myself of any line that I might use to trip you up

E C#m C

And as I'm howling at the moonlight, don't you kid yourself

A

I will be your luck

C

Cause even at my worst

B7 B7

I will be your luck

A B7 E

never be your curse

 

 

 

Return to my Audioslave Guitar Tabs page

The Tablature is Copyright its respective owners.

Sign Up For My Newsletter
Subscribe | Unsubscribe

Site Map | Disclaimer | Privacy Policy | Media Kit | Submissions/Corrections

Website © 2000-2014 mattsmusicpage.com. All rights reserved.

Legal & DMCA: Matt's Music Page has been providing lyrics and tabs in a legal way, paying royalties each year to a few organizations. Then, all lyrics and tabs were removed from the site. Now, there's a new owner to the site, which purchased it August 26, 2014, and he is in negotiation to obtain licensing from BMI at the moment. If you have a specific DMCA request -- please do not hesitate to contact me via the contact button on top. I will do my very best to keep this site fully legal.

Get our toolbar!