Your One-Stop Source For
Music Lyrics
Bass and Guitar Tabs
and More...
Music Lyrics Bass and Guitar Tabs

 

The Audioslave Bass Tabs Are Below

Learn To Read Tab
Chords Handbook
Corrections & Additions
Get Official Tab
Audioslave tabs @ 911Tabs

The Curse - Audioslave

 

Bass by Tim Commeford

 

I think is pretty close, at least this is how I play it.

 

 

Gtr I (E A D G)

 

Intro & Verse 1

Q=65

4/4

Gtr I

H a H H a H 4x H H

||--------------|---------------||-----------|

||o-------------|--------------o||-----------|

||o-------------|--------------o||-----------|

||--0----3s5----|-0----9s12-----||-7----5----|

 

 

H a H H a H H a H

|--------------|-------------|--------------|

|--------------|-------------|--------------|

|--------------|-------------|------9s14----|

|-0----9s12----|-7----3s5----|-9------------|

 

 

Chorus 1

W H E. E S S S Q. +S S S S S E E S Q. E H

|----------|-----------------|-------------------------|-------------|

|----------|------6----6-----|-------------------------|-------------|

|----------|-4-------4---4---|------------10-------3---|-------------|

|-5--------|---------------5S|=8----(8)-8----8-8-3---3-|-5----7-8----|

 

 

Q. +S S E. S S S S S Q. E E. E S S S

|-------------------------|------------------------|

|------------9------------|---------11-----11------|

|----------7------7---7---|------11-----11----11---|

|-0----(0)------0---0---0-|-9--------------------9-|

 

 

Q. +S S S S S S S E.

|---------------------------------|

|-------------10---------10-------|

|----------10----10---10----10----|

|-8----(8)----------8-------------|

 

 

E E E. S E E S E. Q Q S S S S S S S S H a H H a H

|-------------------|-----------------------||--------------|-------------||

|-------------------|-----------------------||o-------------|------------o||

|-------------------|-----------------------||o-------------|------------o||

|-7-7-7--7-7-7-7-5--|-7--7--7-7-7-7-7-7-7-7-||--0----3s5----|-0----9s12---||

 

 

Verse 2

1. 2.

H a H H a H H a Q +S S S S

||--------------|---------------||-------------------------|

||o-------------|--------------o||-------------------------|

||o-------------|--------------o||-----------------------0-|

||--0----3s5----|-0----9s12-----||-0----9s12--(12)-12-10---|

^^^^^^^^^^^^^

I'm not sure about this

 

H H H a H H a H H a H

|-----------|--------------|-------------|--------------|

|-----------|--------------|-------------|--------------|

|-----------|--------------|-------------|------9s14----|

|-7----5----|-0----9s12----|-7----3s5----|-9------------|

 

 

Chorus 2

W H E. E S S S Q. +S S S S S E E S Q. E H

|----------|-----------------|-------------------------|-------------|

|----------|------6----6-----|-------------------------|-------------|

|----------|-4-------4---4---|------------10-------3---|-------------|

|-5--------|---------------5S|=8----(8)-8----8-8-3---3-|-5----7-8----|

 

 

Q. +S S E. S S S S S Q. E E. E S S S

|-------------------------|------------------------|

|------------9------------|---------11-----11------|

|----------7------7---7---|------11-----11----11---|

|-0----(0)------0---0---0-|-9--------------------9-|

 

 

Q. +S S S S S S S E.

|---------------------------------|

|-------------10---------10-------|

|----------10----10---10----10----|

|-8----(8)----------8-------------|

 

 

E E E. S E E S E. E E Q S S S S S S S S

|-------------------|------------------------|

|-------------------|------------------------|

|-------------------|------------------------|

|-7-7-7--7-7-7-7-5--|-7-7-7--7-7-7-7-7-7-7-7-|

 

 

Bridge

Q S S S S Q S S S S E. S a E S S E. S a S S S S

||------------------------|--------------------------------||

||o-----------------------|-------------------------------o||

||o-----------------------|------5s7-5-7------5s7-7-5-7---o||

||--2--2-2-2-3-5--5-5-3-2-|-0--0---------0--0--------------||

 

 

E. S a E S S E. S a S S S S E. S E S S E. S E S S

|-----------------------------|--------------------------|

|------7s9-7-9------5s7-7-5-7-|----11-11---11----9-9---9-|

|-----------------------------|--------------------------|

|-7--7---------5--5-----------|-9--------9----7------7---|

 

 

Guitar Solo

E E E S S E E E S S E E E S S E S S S S S S

|---------------------|-------------------------|

|---------------------|-------------------------|

|---------------------|-----------------2-4-2---|

|-9-9-9-9-9-7-7-7-7-7-|-6-6-6-6-6-2-2-2-------2-|

 

 

E E E S S E E E S S E E E S S E S S S S S S

||----------------------|--------------------------||

||o---------------------|-------------------------o||

||o-4-4-4-4-4-2-2-2-2-2-|-1-1-1-1-1-------2-4-2---o||

||----------------------|-----------2-2-2-------2--||

 

 

E E E S S S S E E E S S S S S S S S S S S S S S S S

|---------------------|---------------------------------|

|---------------------|-----------------9-9-9-9-9-9-9-9-|

|-4-4-4-4-4S7-7-7-7-7-|-9-9-9-9-9-9-9-9-----------------|

|---------------------|---------------------------------|

 

 

S S S S S S S S S S S S S S S S

|---------------------------------|

|-9-9-9-9-9-9-9-9-9-9-9-9-9-9-9-9-|

|---------------------------------|

|---------------------------------|

 

Here is just the guitar, then the drums build up

W Wx7

|----------|--------|

|-7--------|--------|

|----------|--------|

|----------|--------|

 

 

Out-Chorus

Q. +S S E. S S S S S H E. E S S S Q. +S S S S S E E S

|-------------------------|---------------------|--------------------------|

|------------9------------|------11-----11------|--------------------------|

|----------7------7---7---|----------11----11---|------------10-------3----|

|-0----(0)------0---0---0-|-9-----------------9-|-8----(8)-8----8-8-3---3--|

 

 

Q. E H Q. +S S E. S S S S S

|-------------|-------------------------|

|-------------|------------9------------|

|-------------|----------7------7---7---|

|-5----7-8----|-0----(0)------0---0---0-|

 

 

Q. E E. E S S S Q. +S S S S S S S E.

|------------------------|---------------------------------|

|---------11-----11------|-------------10---------10-------|

|------11-----11----11---|----------10----10---10----10----|

|-9--------------------9-|-8----(8)----------8-------------|

 

 

Q. E Q. E Q. +S S E E E E

|---------------|--------------------|

|---------------|--------------------|

|---------------|--------------------|

|-5----7-8----7-|-5----(5)-5-5-5-5-5-|

 

 

E E E. S E E S E. E E Q S S S S S S S S

|-------------------|-------------------------|

|-------------------|-------------------------|

|-------------------|-------------------------|

|-7-7-7--7-7-7-7-5--|-7-7-7--7-7-7-7-7-7-7-7--|

 

 

W +W +W

|------|------------|--------*|

|------|------------|--------*|

|------|------------|--------*|

|-0----|-(0)--------|-(0)----*|

 

 

Duration Legend

---------------

W - whole; H - half; Q - quarter; E - 8th; S - 16th; T - 32nd; X - 64th; a - acciaccatura

+ - note tied to previous; . - note dotted; .. - note double dotted

Uncapitalized letters represent notes that are staccato (1/2 duration)

Irregular groupings are notated above the duration line

Duration letters will always appear directly above the note/fret number it represents the

duration for. Duration letters with no fret number below them represent rests. Multi-

bar rests are notated in the form Wxn, where n is the number of bars to rest for. Low

melody durations appear below the staff

 

Tablature Legend

----------------

h - hammer-on

p - pull-off

b - bend

pb - pre-bend

r - bend release (if no number after the r, then release immediately)

/\ - slide into or out of (from/to "nowhere")

s - legato slide

S - shift slide

<n> - natural harmonic

[n] - artificial harmonic

n(n) - tapped harmonic

~ - vibrato

tr - trill

T - tap

TP - trem. picking

PM - palm muting

\n/ - tremolo bar dip; n = amount to dip

\n - tremolo bar down

n/ - tremolo bar up

/n\ - tremolo bar inverted dip

= - hold bend; also acts as connecting device for hammers/pulls

<> - volume swell (louder/softer)

x - on rhythm slash represents muted slash

o - on rhythm slash represents single note slash

 

Misc Legend

-----------

| - bar

|| - double bar

||o - repeat start

o|| - repeat end

*| - double bar (ending)

: - bar (freetime)

$ - Segno

& - Coda

Tempo markers - <E/E./Q/Q./H/H.> = BPM(8/16=s8/s16), where s8 = swing 8ths, s16 = swing 16ths

 

Return to my Audioslave Bass Tabs page

The Tablature is Copyright its respective owners.

Sign Up For My Newsletter
Subscribe | Unsubscribe

Site Map | Disclaimer | Privacy Policy | Media Kit | Submissions/Corrections

Website © 2000-2014 mattsmusicpage.com. All rights reserved.

Legal & DMCA: Matt's Music Page has been providing lyrics and tabs in a legal way, paying royalties each year to a few organizations. Then, all lyrics and tabs were removed from the site. Now, there's a new owner to the site, which purchased it August 26, 2014, and he is in negotiation to obtain licensing from BMI at the moment. If you have a specific DMCA request -- please do not hesitate to contact me via the contact button on top. I will do my very best to keep this site fully legal.

Get our toolbar!