Your One-Stop Source For
Music Lyrics
Bass and Guitar Tabs
and More...
Music Lyrics Bass and Guitar Tabs

 

The Tabs Are Below

Learn To Read Tab
Chords Handbook
Corrections & Additions
Get Official Tab
Audioslave tabs @ 911Tabs

Artist - Audioslave

Song - What you are

 

NOTE - its drop B tuning for a 4 string bass. (tune the E string to the

10th fret to the A string.)

 

String order top to bottom of fret board - B A D G

 

It's an easy song.

 

~~~ = Let ring

 

|---------------------------------------------|

|---------------------------------------------|

|---------------------------------------------|

|----------------------------------------10---|

1 2 3 4

 

|-------------------------------------|

|-------------------------------------|

|-------------------------------------|

|--12~~~~~~~~~~~~~~~~~~~~~~~~~~~~~~~~~|

1 2 3 4

 

|--------------------------------------|----------------------------------------|

|--------------------------------------|----------------------------------------|

|--------------------------------------|----------------------------------------|

|-5~~~~~~~~~~~~~~~~~~~~~~~~~~~~~~~~~~~~|-3~~~~~~~~~~~~~~~~~~~~~~~~~~~~~~~~~~~~~~|

1 2 3 4 1 2 3 4

 

|-------------------------------------|

|-------------------------------------|

|-------------------------------------|

|-2~~~~~~~~~~~~~~~~~~~~~~~~~~~~~~~~~10|

1 2 3 4

 

|--------------------------------------|----------------------------------------|

|--------------------------------------|----------------------------------------|

|--------------------------------------|----------------------------------------|

|-12~~~~~~~~~~~~~~~~~~~~~~~~~~~~~~~~~~~|-5~~~~~~~~~~~~~~~~~~~~~~~~~~~~~~~~~~~~~~|

1 2 3 4 1 2 3 4

 

|-------------------------------------|

|-------------------------------------|

|-------------------------------------|

|-3~~~~~~~~~~~~~~~~~~~~~~~~~~~~~~~~~~~|

1 2 3 4

 

|--------------------------------------|-----------------------------------------|

|--------------------------------------|-----------------------------------------|

|--------------------------------------|-----------------------------------------|

|-2~~~~~~~~~~~~~~~~~~~~~~~~~~~~~~~~~10~|--12---12---12---12---12---12---12---12--|

1 2 3 4 1 2 3 4

 

|-------------------------------------|

|-------------------------------------|

|----7---7---7---7---7---7---7---7----|

|-------------------------------------|

1 2 3 4

 

|--------------------------------------|----------------------------------------|

|--------------------------------------|--7----7----7----7----7----7----7----7--|

|----5---5---5---5---5---5---5---5-----|----------------------------------------|

|--------------------------------------|----------------------------------------|

1 2 3 4 1 2 3 4

 

|-------------------------------------|

|----9---9---9---9---9---9---9---9----|

|-------------------------------------|

|-------------------------------------|

1 2 3 4

 

|--------------------------------------|-----------------------------------------|

|----9---9---9---9---9---9---9---9-----|-----------------------------------------|

|--------------------------------------|--10---10---10---10---10---10---10---10--|

|--------------------------------------|-----------------------------------------|

1 2 3 4 1 2 3 4

 

|-------------------------------------|

|-------------------------------------|

|----9---9---9---9---9---9---9---9----|

|-------------------------------------|

1 2 3 4

 

|--------------------------------------|----------------------------------------|

|--------------------------------------|----------------------------------------|

|--------------------------------------|----------------------------------------|

|---12---12---12---12---7---7---7---7--|---5---5----------3----3----3---3---3---|

1 2 3 4 1 2 3 4

 

|--------------------------------------|----------------------------------------|

|--------------------------------------|----------------------------------------|

|--------------------------------------|----------------------------------------|

|---12---12---12---12---7---7---7---7--|---5---5----------3----3----3---3---3---|

1 2 3 4 1 2 3 4

 

|--------------------------------------|----------------------------------------|

|--------------------------------------|----------------------------------------|

|--------------------------------------|----------------------------------------|

|---12---12---12---12---7---7---7---7--|---5---5----------3----3----3---3---3---|

1 2 3 4 1 2 3 4

 

|--------------------------------------|----------------------------------------|

|--------------------------------------|----------------------------------------|

|--------------------------------------|----------------------------------------|

|----7---7---7---7---7---7---7---7-----|--7-----7-----6-----5--------3------2---|

1 2 3 4 1 2 3 4

 

|--------------------------------------|----------------------------------------|

|--------------------------------------|----------------------------------------|

|--------------------------------------|--7----7----7----7----7----7----7----7--|

|----12--12--12--12--12--12--12--12----|----------------------------------------|

1 2 3 4 1 2 3 4

 

|-------------------------------------|

|-------------------------------------|

|---5----5----5----5----5---5---5---5-|

|-------------------------------------|

1 2 3 4

 

|--------------------------------------|----------------------------------------|

|--------------------------------------|----------------------------------------|

|-----4---4---4---4---4---4---4----0---|--2----2----2----2----2----2----2----2--|

|--------------------------------------|----------------------------------------|

1 2 3 4 1 2 3 4

 

|-------------------------------------|

|-------------------------------------|

|----7---7---7---7---7---7---7---7----|

|-------------------------------------|

1 2 3 4

 

|--------------------------------------|----------------------------------------|

|--------------------------------------|----------------------------------------|

|----5---5---5---5---5---5---5---5-----|--4----4----4----4----4----4----4----0--|

|--------------------------------------|----------------------------------------|

1 2 3 4 1 2 3 4

 

|-------------------------------------|

|-------------------------------------|

|----2---2---2---2---2---2---2---2----|

|-------------------------------------|

1 2 3 4

 

|----------------------------------|-----------------------------------------|

|----------------------------------|-----------------------------------------|

|---7---7---7---7---7---7--7---7---|---5----5----5----5----5----5----5----5--|

|----------------------------------|-----------------------------------------|

1 2 3 4 1 2 3 4

 

|---------------------------------|

|--7---7---7---7---7---7---7---7--|

|---------------------------------|

|---------------------------------|

1 2 3 4

 

|----------------------------------|-----------------------------------------|

|---9---9---9---9---9---9---9---9--|---9----9----9----9----9----9----9----9--|

|----------------------------------|-----------------------------------------|

|----------------------------------|-----------------------------------------|

1 2 3 4 1 2 3 4

 

|-----------------------------------|

|-----------------------------------|

|---10--10--10--10--10--10--10--10--|

|-----------------------------------|

1 2 3 4

 

|----------------------------------|------------------------------|

|----------------------------------|------------------------------|

|---9---9---9---9---9---9---9---9--|------------------------------|

|----------------------------------|--12--12--12--12--7--7--7--7--|

1 2 3 4 1 2 3 4

 

|---------------------------------------|

|---------------------------------------|

|---------------------------------------|

|----5---5----------3----3----3---3---3-|

1 2 3 4

 

|------------------------------|------------------------------------------|

|------------------------------|------------------------------------------|

|------------------------------|------------------------------------------|

|--12--12--12--12--7--7--7--7--|-----5---5-----------3----3----3----3---3-|

1 2 3 4 1 2 3 4

|------------------------------|------------------------------------------|

|------------------------------|------------------------------------------|

|------------------------------|------------------------------------------|

|--12--12--12--12--7--7--7--7--|-----5---5-----------3----3----3----3---3-|

1 2 3 4 1 2 3 4

 

|----------------------------------|-------------------------------------|

|----------------------------------|-------------------------------------|

|----------------------------------|-------------------------------------|

|---7---7---7---7---7---7---7---7--|--7-----7-----6-----5------3------2--|

1 2 3 4 1 2 3 4

 

|---------------------------------|

|---------------------------0-----|

|---2----0---2---2----0-------2---|

|---------------------------------|

1 2 3 4

 

|---------------------------------|

|---------------------------0-----|

|---2----0---2---2----0-------2---|

|---------------------------------|

1 2 3 4 This part goes something like this but it has

Variations so you might have to work those

|---------------------------------| parts Out yourselves.

|---------------------------0-----|

|---2----0---2---2----0-------2---|

|-0-------------------------------|

1 2 3 4

 

|---------------------------------|

|---------------------------0-----|

|---2----0---2---2----0-------2---|

|-0-------------------------------|

1 2 3 4

 

|---------------------------------|

|---------------------------0-----|

|---2----0---2---2----0-------2---|

|-0-------------------------------|

1 2 3 4

 

|---------------------------------|

|---------------------------0-----|

|---2----0---2---2----0-------2---|

|---------------------------------|

1 2 3 4

 

|---------------------------------|

|---------------------------0-----|

|---2----0---2---2----0-------2---|

|-0-------------------------------|

1 2 3 4

 

|---------------------------------|

|---------------------------0-----|

|---2----0---2---2----0-------2---|

|-0-------------------------------|

1 2 3 4

 

Rest 4 bars.

 

 

|------------------------------|--------------------------------------------|

|------------------------------|--------------------------------------------|

|------------------------------|--------------------------------------------|

|--12--12--12--12--7--7--7--7--|-----5---5-----------3----3----3----3----3--|

1 2 3 4 1 2 3 4

|------------------------------|--------------------------------------------|

|------------------------------|--------------------------------------------|

|------------------------------|--------------------------------------------|

|--12--12--12--12--7--7--7--7--|-----5---5-----------3----3----3----3----3--|

1 2 3 4 1 2 3 4

|------------------------------|--------------------------------------------|

|------------------------------|--------------------------------------------|

|------------------------------|--------------------------------------------|

|--12--12--12--12--7--7--7--7--|-----5---5-----------3----3----3----3----3--|

1 2 3 4 1 2 3 4

 

|---------------------------------|----------------------------------------|

|---------------------------------|----------------------------------------|

|---------------------------------|----------------------------------------|

|--7---7---7---7---7---7---7---7--|--7----7----7----7----7----7----7----7--|

1 2 3 4 1 2 3 4

|------------------------------|-------------------------------------------|

|------------------------------|-------------------------------------------|

|------------------------------|-------------------------------------------|

|--12--12--12--12--7--7--7--7--|----5---5-----------3----3----3----3----3--|

1 2 3 4 1 2 3 4

 

|------------------------------|-------------------------------------------|

|------------------------------|-------------------------------------------|

|------------------------------|-------------------------------------------|

|--12--12--12--12--7--7--7--7--|-----5---5----------3----3----3----3----3--|

1 2 3 4 1 2 3 4

|------------------------------|-------------------------------------------|

|------------------------------|-------------------------------------------|

|------------------------------|-------------------------------------------|

|--12--12--12--12--7--7--7--7--|-----5---5----------3----3----3----3----3--|

1 2 3 4 1 2 3 4

 

|----------------------------------|---------------------------------------|

|----------------------------------|---------------------------------------|

|----------------------------------|---------------------------------------|

|---7---7---7---7---7---7---7---7--|--7-----7-----6-----5-------3------2---|

1 2 3 4 1 2 3 4

 

|--------------------------------------|

|--------------------------------------|

|--------------------------------------|

|-0~~~~~~~~~~~~~~~~~~~~~~~~~~~~~~~~~~~~| Hold note as long as possible

1 2 3 4

 

That's about it. Pretty sure most of its right.

Enjoy

 

Return to my Audioslave bass tabs page

The Tablature is Copyright its respective owners.

Sign Up For My Newsletter
Subscribe | Unsubscribe

Site Map | Disclaimer | Privacy Policy | Media Kit | Submissions/Corrections

Website © 2000-2014 mattsmusicpage.com. All rights reserved.

Legal & DMCA: Matt's Music Page has been providing lyrics and tabs in a legal way, paying royalties each year to a few organizations. Then, all lyrics and tabs were removed from the site. Now, there's a new owner to the site, which purchased it August 26, 2014, and he is in negotiation to obtain licensing from BMI at the moment. If you have a specific DMCA request -- please do not hesitate to contact me via the contact button on top. I will do my very best to keep this site fully legal.

Get our toolbar!

 

Starbucks You Are Here Coffee Mug/Cup KENTUCKY - Horses, Banjo, Blue, White
$19.99
Starbucks You Are Here Coffee Mug/Cup KENTUCKY - Horses, Banjo, Blue, White picture


KNOWLES ROCKWELL HERITAGE "THE BANJO PLAYER" FIRST EDITION 1989 PLATE COA
$5.99
KNOWLES ROCKWELL HERITAGE


Vintage Postcard 1981 Disney World Banjo Kings Main Street USA 1981 Postmark
$4.99
 Vintage Postcard 1981 Disney World Banjo Kings Main Street USA 1981 Postmark picture


Banjo Barometer With Thermometer Hygrometer 490mm
$84.76
Banjo Barometer With Thermometer Hygrometer 490mm picture


ANTIQUE JAPANESE NIPPON FIGURINE SET OF 3 WOMEN GEISHA PLAYING DRUM BANJO FAN
$24.0
ANTIQUE JAPANESE NIPPON FIGURINE SET OF 3 WOMEN GEISHA PLAYING DRUM BANJO FAN picture