Your One-Stop Source For
Music Lyrics
Bass and Guitar Tabs
and More...
Music Lyrics Bass and Guitar Tabs

 

The Tabs Are Below

Learn To Read Tab
Chords Handbook
Corrections & Additions
Get Official Tab
Angels and Airwaves tabs @ 911Tabs

Good Day--Angels And Airwaves

-------------------------------------------------------------------------------

 

Tabbed By : Matt

e-mail:mattbagley@hotmail.com

 

Tuning:

Verse

0:09

G|---------------------------------------------------------------------------|

D|---------------------------------------------------------------------------|

A|---------------------------------------76----------------------------------|

E|--77777---2/44444---7-77777---2/4444-4-----77777---2/4444------------------|

 

0:23

G|---------------------------------------------------------------------------|

D|---------------------------------------------------------------------------|

A|-----------------------------------------76--------------------------------|

E|-77777-2/44444-2/4\2---77777---2/4444--7------7-7777---4-44444-------------|

 

 

Pre-Chorus

"Oh I Need You Now"

0:46

G|---------------------------------------------------------------------------|

D|---------------------------------------------------------------------------|X2

A|---------------------------------------------------------------------------|

E|-7-----------------6-----------------4----------------6--------------------|

 

Chorus

"I think I like Today"

1:11

G|----------------------------|

D|----------------------------|

A|----------------------------|

E|-7--------------------------|

 

Verse

"True Love Is Something that Comes easy"

1:32

G|---------------------------------------------------------------------------|

D|---------------------------------------------------------------------------|

A|-----------------------------------------76--------------------------------|

E|-77777-2/44444-2/4\2---77777---2/4444--7------7-7777---4-44444-------------|

 

 

Pre-Chorus

"Oh I need You Now"

1:55

G|---------------------------------------------------------------------------|

D|---------------------------------------------------------------------------|

A|---------------------------------------------------------------------------|X2

E|-7-----------------6-----------------4----------------6--------------------|

 

Chorus

"I think I like Today"

2:20

G|---------------------------------------------------------------------------|

D|---------------------------------------------------------------------------|

A|---------9-7-6-6-6-67------------------------------------------------------|X2

E|-7-7-7-7--------------4-4-4-4--6-6-6-6-------------------------------------|

 

G|---------------------------------------------------------------------------|

D|---------------------------------------------------------------------------|

A|-------------997766666666666667--------------------------------------------|X2

E|-77777777777-------------------4444444444442-6666666666666666--------------|

 

Middle

3:10

G|--------------------------------------11---989--11--989-8-4----------------|

D|---------------------------------------------------------------------------|

A|---------------------------------------------------------------------------|

E|-7----------------7--------------7-----------------------------------------|

 

Chorus

"I think I like Today"

3:35

G|---------------------------------------------------------------------------|

D|---------------------------------------------------------------------------|

A|-------------997766666666666667--------------------------------------------|X4

E|-77777777777-------------------4444444444442-6666666666666666--------------|

 

 

End.

"Something I Can't Get my Head Around"

4:27

E|-----7---------|

 

 

 

 

| / slide up

| \ slide down

| h hammer-on

| p pull-off

| ~ vibrato

| + harmonic

| x Mute note

 

 

Return to my Angels and Airwaves bass tabs page

The Tablature is Copyright its respective owners.

The creator of this page is in no way affiliated with Angels and Airwaves. The creator of this page is simply a fan that made a page about Angels and Airwaves Bass Tablature and more.

Sign Up For My Newsletter
Subscribe | Unsubscribe

Site Map | Disclaimer | Privacy Policy | Media Kit | Submissions/Corrections

Website © 2000-2014 mattsmusicpage.com. All rights reserved.

Legal & DMCA: Matt's Music Page has been providing lyrics and tabs in a legal way, paying royalties each year to a few organizations. Then, all lyrics and tabs were removed from the site. Now, there's a new owner to the site, which purchased it August 26, 2014, and he is in negotiation to obtain licensing from BMI at the moment. If you have a specific DMCA request -- please do not hesitate to contact me via the contact button on top. I will do my very best to keep this site fully legal.

Get our toolbar!