Your One-Stop Source For
Music Lyrics
Bass and Guitar Tabs
and More...
>Music Lyrics Bass and Guitar Tabs

 

The Tabs Are Below

Learn To Read Tab
Chords Handbook
Corrections & Additions
Get Official Tab
All American Rejects tabs @ 911Tabs

song: your star

artist: the all-american rejects

album: the all-american rejects

 

note: first tab ever, don't get mad if any of it sounds funny.

 

intro

guitar:1

E|--------------------------------------------------------|-------------------

B|--------------------------------------------------------|-------------------

G|----7-----7-----------------4-----4---------------------|-------------------

D|----7-----7-----7-----7-----4-----4-----5-----5---------|2x-----------------

A|----5-----5-----7-----7-----2-----2-----5-----5---------|-------------------

e|----------------5-----5-----------------3-----3---------|-------------------

 

guitar: 2

E|--------------------------------------------------------|-------------------

B|--------------------------------------------------------|-------------------

G|-------7-----7-----------------4-----4------------------|-------------------

D|-------7-----7-----7-----7-----4-----4-----5-----5------|2x-----------------

A|-------5-----5-----7-----7-----2-----2-----5-----5------|-------------------

e|-------------------5-----5-----------------3-----3------|-------------------

 

you can have the intro played by E|----15-14-----|-------------------

either 1 guitar, or 2, just gotta B|----------15--|-------------------

change your timing around. G|--------------|2x---77------------

D|--------------|-----77------------

A|--------------|-----55------------

e|--------------|-------------------

 

verse:1

guitar:1

this part sounds like its played by a piano but these are the chords for the guitar.

E|---------------------------------------|------------------------------------

B|---------------------------------------|------------------------------------

G|--77777777-77777777-44444444-----------|-4x---------------------------------

D|--77777777-66666666-44444444-55555555--|------------------------------------

A|--55555555-55555555-22222222-55555555--|------------------------------------

e|-----------------------------33333333--|------------------------------------

 

jumps in on the last 2 measures

guitar:2 or both guitars

E|----------------------------------------------------------------------------

B|----------------------------------------------------------------------------

G|--7-7-7-7-----------4-4-4-4-----------7-7-7-7-------------------------------

D|--7-7-7-7--7-7-7-7--4-4-4-4--5-5-5-5--7-7-7-7--7-7-7-7--5555555555555555----

A|--5-5-5-5--7-7-7-7--2-2-2-2--5-5-5-5--5-5-5-5--7-7-7-7--5555555555555555----

e|-----------5-5-5-5-----------3-3-3-3-----------5-5-5-5--3333333333333333----

 

chorus

E|-------------------------------------------------------------------------|

B|-------------------------------------------------------------------------|

G|--7777777777777777--------------------4444444444444444-------------------|2x

D|--7777777777777777--7777777777777777--4444444444444444--5555555555555555-|

A|--5555555555555555--7777777777777777--2222222222222222--5555555555555555-|

e|--------------------5555555555555555--------------------3333333333333333-|

sounds like some other electronic sound in the background

 

(jumps back to the intro)

verse:2

guitar:1

E|---------------------------------------|------------------------------------

B|---------------------------------------|------------------------------------

G|--77777777-77777777-44444444-----------|-4x---------------------------------

D|--77777777-66666666-44444444-55555555--|------------------------------------

A|--55555555-55555555-22222222-55555555--|------------------------------------

e|-----------------------------33333333--|------------------------------------

 

guitar:2

E|---------------------------------------|------------------------------------

B|--8-7-5---5---5---5-8-7-5---5---5------|------------------------------------

G|--------7---7---7---------7---7---7----|2x----------------------------------

D|---------------------------------------|------------------------------------

A|---------------------------------------|------------------------------------

e|---------------------------------------|------------------------------------

 

jumps in on the last 2 measures

guitar:2 or both guitars

E|----------------------------------------------------------------------------

B|----------------------------------------------------------------------------

G|--7-7-7-7-----------4-4-4-4-----------7-7-7-7-------------------------------

D|--7-7-7-7--7-7-7-7--4-4-4-4--5-5-5-5--7-7-7-7--7-7-7-7--5555555555555555----

A|--5-5-5-5--7-7-7-7--2-2-2-2--5-5-5-5--5-5-5-5--7-7-7-7--5555555555555555----

e|-----------5-5-5-5-----------3-3-3-3-----------5-5-5-5--3333333333333333----

 

chorus

E|-------------------------------------------------------------------------|--

B|-------------------------------------------------------------------------|--

G|--7777777777777777--------------------4444444444444444-------------------|--

D|--7777777777777777--7777777777777777--4444444444444444--5555555555555555-|2x

A|--5555555555555555--7777777777777777--2222222222222222--5555555555555555-|--

e|--------------------5555555555555555--------------------3333333333333333-|--

 

solo: don't know it yet. will figure it out later

 

E|------------------------------------------------------------------|---------

B|------------------------------------------------------------------|---------

G|--4-4-4-4-4-4-4-4-----------------7-7-7-7-7-7-7-7-----------------|---------

D|--4-4-4-4-4-4-4-4-5-5-5-5-5-5-5-5-7-7-7-7-7-7-7-7-7-7-7-7-7-7-7-7-|---------

A|--2-2-2-2-2-2-2-2-5-5-5-5-5-5-5-5-5-5-5-5-5-5-5-5-7-7-7-7-7-7-7-7-|---------

e|------------------3-3-3-3-3-3-3-3-----------------5-5-5-5-5-5-5-5-|---------

leave me be, now i'm free, love reflecting everything

E|------------------------------------------------------------------|---------

B|------------------------------------------------------------------|---------

G|--4-4-4-4-4-4-4-4-----------------7-7-7-7-7-7-7-7-----------------|---------

D|--4-4-4-4-4-4-4-4-5-5-5-5-5-5-5-5-7-7-7-7-7-7-7-7-7---------------|---------

A|--2-2-2-2-2-2-2-2-5-5-5-5-5-5-5-5-5-5-5-5-5-5-5-5-7(ring)---------|---------

e|------------------3-3-3-3-3-3-3-3-----------------5---------------|---------

you want space, i need you to help me see this through

guitar or piano

E|------------------------------------|---------------------------------------

B|----5-7-7----5-7-7----5-7-7--7------|---------------------------------------

G|--7----------------4---------5-7----|2x-------------------------------------

D|--7--------7-------4---------5------|---------------------------------------

A|--5--------7-------2---------3------|---------------------------------------

e|-----------5------------------------|---------------------------------------

 

2nd measure only

guitar:2

E|---------------------------------------------------|------------------------

B|---------------------------------------------------|------------------------

G|--7-7-7-7-7-7-7-7-7-7-7-7-7-7-7-7-7-7-7-7-7-7-7-7--|------------------------

D|--7-7-7-7-7-7-7-7-7-7-7-7-7-7-7-7-7-7-7-7-7-7-7-7--|------------------------

A|--5-5-5-5-5-5-5-5-5-5-5-5-5-5-5-5-5-5-5-5-5-5-5-5--|------------------------

e|---------------------------------------------------|------------------------

 

chorus

E|-------------------------------------------------------------------------|--

B|-------------------------------------------------------------------------|--

G|--7777777777777777--------------------4444444444444444-------------------|--

D|--7777777777777777--7777777777777777--4444444444444444--5555555555555555-|2x

A|--5555555555555555--7777777777777777--2222222222222222--5555555555555555-|--

e|--------------------5555555555555555--------------------3333333333333333-|--

 

tell me what you think, questions, comments, criticism. but if your pissed off.

don't write to me. hahaha

 

contact: gooboy_53@hotmail.com

 

Return to my All-American Rejects tabs page

The Tablature is Copyright its respective owners.

Sign Up For My Newsletter
Subscribe | Unsubscribe

Site Map | Disclaimer | Privacy Policy | Media Kit | Submissions/Corrections

Website © 2000-2014 mattsmusicpage.com. All rights reserved.

Legal & DMCA: Matt's Music Page has been providing lyrics and tabs in a legal way, paying royalties each year to a few organizations. Then, all lyrics and tabs were removed from the site. Now, there's a new owner to the site, which purchased it August 26, 2014, and he is in negotiation to obtain licensing from BMI at the moment. If you have a specific DMCA request -- please do not hesitate to contact me via the contact button on top. I will do my very best to keep this site fully legal.

Get our toolbar!

 

V. Horowitz .. Rare Red Vinyl 45 rpm BOX SET OF LISZT .. RCA WDM 1534 NM/NM-
$6.0
 V. Horowitz .. Rare Red Vinyl 45 rpm BOX SET OF LISZT .. RCA WDM 1534 NM/NM- picture


Vintage BUDWEISER BEER Wooden Crate Storage for 12" Vinyl Records Advertising
$49.99
Vintage BUDWEISER BEER Wooden Crate Storage for 12


WALT DISNEY WORLD EPCOT CENTER VOICES OF LIBERTY record album LP vinyl
$9.0
WALT DISNEY WORLD EPCOT CENTER  VOICES OF LIBERTY record album LP vinyl picture


ORIGINAL 1964-vintage (W.S.Myers Assoc) "ILIKAI Hotel" Vinyl-Record~EP ~w/SLEEVE
$3.0
ORIGINAL 1964-vintage (W.S.Myers Assoc)


The Jets-Crush On You - 12" MCA Records Vinyl
$5.0
The Jets-Crush On You - 12